Song name
# A B C D E F G H I J K L M N O P Q R S T U V W X Y Z

Arcade Fire - In The Backseat tab

Song: In The Backseat
Artist: Arcade Fire

Bits and pieces of the existing tabs are decent,
hopefully this brings all the good stuff together
for something pretty accurate.

Listen to the song a few times to learn the timing with lyrics.
Sounds good fingerpicked, but strumming works too. Look at the
finger positions (2 per bar) and try strumming those.

== Verses
                                                                    
           I       like the peace          In     the back seat
e|-----5-7-5-----------5-7-5-----------3-5-3-----------3-5-3-------|
B|---5-------5---5---5-------5---5---3-------3---3---3-------3---3-|
G|-5-----------5---5-----------5---4-----------4---4-----------4---|
D|-----------------------------------------------------------------|
A|-----------------------------------------------------------------|
E|-----------------------------------------------------------------|

e|-----3-5-3-----------3-5-3-----------2-3-2-----------2-3-2-------|
B|---3-------3---3---3-------3---3---3-------3---3---3-------3---3-|
G|-3-----------3---3-----------3---2-----------2---2-----------2---|
D|-----------------------------------------------------------------|
A|-----------------------------------------------------------------|
E|-----------------------------------------------------------------|


e|-----0-2-0-----------0-2-0-------------0---------------0---------|
B|---0-------0---0---0-------0---0---0-3---3-0---0---0-3---3-0---0-|
G|-1-----------1---1-----------1---0-----------0---0-----------0---|
D|-----------------------------------------------------------------|
A|-----------------------------------------------------------------|
E|-----------------------------------------------------------------|

Repeat as needed

== Chorus

Strumming the chorus sounds pretty good here

     D   Dmaj7   Bm   F#m                                              
e|---2-----3-----2-----2-------------|
B|---3-----3-----3-----2-------------|
G|---2-----3-----4-----2-------------|
D|---0-----0-----4-----4-------------|
A|---------------2-----4-------------|
E|---------------------2-------------|

Exerpt from existing tab:
http://tabs.ultimate-guitar.com/a/arcade_fire/in_the_backseat_crd.htm

      D     Dmaj7
Alice died
       Bm
In the night
          F#m         D    Dmaj7
I've been learning to drive
         Bm
My whole life
          F#m
I've been learning


== Violin Fill / Bridge Section

e|---------------------------------------------------------------|
B|--5-5-/-13----3-3-/-12---12-11-10-8-3-7-3---5-/-12---5-/-12----|
G|---------------------------------------------------------------|
D|---------------------------------------------------------------|
A|---------------------------------------------------------------|
E|---------------------------------------------------------------|

And that's about it.  Enjoy!
Tap to rate this tab
 
# A B C D E F G H I J K L M N O P Q R S T U V W X Y Z