Song name
# A B C D E F G H I J K L M N O P Q R S T U V W X Y Z

Arcade Fire - Culture War tab

     Arcade Fire
     Culture War
     The Suburbs [Deluxe Edition]


This is an really awesome song by an awesome band and this is the tab:

NOTICE THE TUNING!


Chords:
C#m - x46654
G#m - 466444
E - 022100
B - x24442
F# - 244222
D# - x68886

Intro:

Chords:
C#m   G#m   E   B

Eb-(4)---------------------------------------------------------------------|
Bb-(5)---------------------------------------------------------------------|
Gb-(6)---------------------------------------------------------------------|
Db-(6)---------------------------------------------------------------------|
Ab-----1/4-2-4--2--------------------2----3/4-2-4--6-7------------------2--|
Eb-----------------4---2--0--0h2--4--------------------4--2--0--0h2--4-----|

Verse:

C#m   G#m   E   B x3
C#m   G#m   E   F#   (D#)

Guitar riff at "Though we know..."
Eb------------------------------------------|
Bb------------------------------------------|
Gb-----------------------4------------------|
Db--------6---4-2--2h4-6--------------------|
Ab-4--6-7-----------------------------------|
Eb------------------------------------------|

Chorus:

E   B   E   G#m
E   B   F#  D#

Verse:

C#m   G#m   E   B x3
C#m   G#m   E   F#   (D#)

Eb---------------------------------------------------|
Bb---------------------------------------------------|
Gb-6--4-3--------------4---4/6-4-6---6/8-9-----3--4--|
Db--------6--4-2-2h4-6---------------------6---------|
Ab---------------------------------------------------|
Eb---------------------------------------------------|

Eb------------------------------------------------|
Bb------------------------------------------------|
Gb-4/6-4-6--4-3---------------/9-9-9--------------|
Db--------------6---6--4--2-----------------------|
Ab------------------------------------------------|
Eb------------------------------------------------|

Chorus:

E   B   E   G#m
E   B   F#  D#

Again with the riff below:
E   B   E   G#m
E   B   F#  D#

Eb--------------------------------|
Bb--------------------------------|
Gb-----9------16-----9-----13-----|
Db-4/6----/13-----4/6---/10-------|
Ab--------------------------------|
Eb--------------------------------|

Eb--------------------------------|
Bb--------------------------------|
Gb-----9-----16------11-----20----|
Db-4/6----/13----6/8-----/17------|
Ab--------------------------------|
Eb--------------------------------|


Bridge:
C#m   G#m   E   B
C#m   G#m   E   F#

And then there is a part that is a bit unclear but I believe it's the same concept as 
previous riff but with lower notes..

Chorus:
 (Until the end)

E   B   E   G#m
E   B   F#  D#

With this:
Eb----------------------------------------------------------------------|
Bb----------------------------------------------------------------------|
Gb-------21-------16--------21-------13---------21--------16------11----|
Db-16/18-----11/13-----16/18-----8/10------16/18-----11/13-----6/8------|
Ab----------------------------------------------------------------------|
Eb----------------------------------------------------------------------|

Eb---------------------|
Bb-------16-17-19------|
Gb-11/13---------------|
Db---------------------|
Ab---------------------|
Eb---------------------|


And then comes what I hope is a keyboard which I haven't tabbed..


Legend:
() - Optional
/ - Slide
h - Hammer On



This is how I enjoy this song and If you have any corrections I'd be happy to know!
Make sure to tune before you rate!
Thank You Arcade Fire, You're awesome!
Tap to rate this tab
# A B C D E F G H I J K L M N O P Q R S T U V W X Y Z