Song name
# A B C D E F G H I J K L M N O P Q R S T U V W X Y Z

Arcade Fire - Speaking In Tongues tab

IMPORTANT>>>****CAPO ON 6TH FRETT*****<<<<


Standard tuning E A D G B E

Band: Arcade Fire
Song: Speaking in tongues
Album: The Suburbs Deluxe Edition

For the video lesson go here: http://www.youtube.com/watch?v=6P8vYjv56xA

This is quite a fast riff.

|-0---1-1--0---1-1-3-0-1-1-3-0-1-1--|
|---1----1---1----1-1-1-1-1-1-1-1-1-|
|--2-2-2----2-2-2-------------------|  
|-----------------------------------|
|-----------------------------------|
|-----------------------------------|


|-0---1-1--0---1-1-3-0-1-1-3-1-0-0-1-3---|
|---1----1---1----1-1-1-1-1-1---------1--|
|--2-2-2----2-2-2------------------------|  
|----------------------------------------|
|----------------------------------------|
|----------------------------------------|

Make sure you play the last few notes clearer.

Any problems with the tab (i doubt there is) E-mail me at micealcwilson@gmail.com
Tap to rate this tab
 
# A B C D E F G H I J K L M N O P Q R S T U V W X Y Z