Song name
# A B C D E F G H I J K L M N O P Q R S T U V W X Y Z

Arcade Fire - Abrahams Daughter tab

This is quite easy... Though if it doesn't sound nice, I am sorry. I tried to figure it 
out myself. Hope you love it!


Verse 1
E|0-3-2-5-3-7-5-8-7-3-5-2-0---0|
B|----------------------------3|
G|-----------------------------|
D|-----------------------------|
A|-----------------------------|
E|-----------------------------|
* Play twice
E|7-7-8-5-5-7-5-3-3-5-3-2---2-0|
B|------------------------3----|
G|-----------------------------|
D|-----------------------------|
A|-----------------------------|
E|-----------------------------|
Verse 2
E|0-3-2-5-3-7-5-8-7-3-5-2-0---0|
B|----------------------------3|
G|-----------------------------|
D|-----------------------------|
A|-----------------------------|
E|-----------------------------|
*Play twice
E|7-7-8-5-5-7-5-3-3-5-3-2---2-0|
B|------------------------3----|
G|-----------------------------|
D|-----------------------------|
A|-----------------------------|
E|-----------------------------|
*Play twice
E|7-7-8-5-7-5-5-3-3-5-3-2---2-0|
B|------------------------3----|
G|-----------------------------|
D|-----------------------------|
A|-----------------------------|
E|-----------------------------|
Tap to rate this tab
# A B C D E F G H I J K L M N O P Q R S T U V W X Y Z