Song name
# A B C D E F G H I J K L M N O P Q R S T U V W X Y Z

Arcade Fire - Abrahams Daughter tab

Verse 1 (x2)

E ------------------------------------------------------------|
B ---0--3--2-----5----3---7--5---8---7---3---5---2------------|
G ---------------------------------------------------4---4--4-|
D ------------------------------------------------------------|
A ------------------------------------------------------------|
E ------------------------------------------------------------|

Chorus

E ------------------------------------------------------------|
B -7--7--8--7---5--5---5---7---5---3---3---3---5--3--2----2---|
G -----------------------------------------------------2----4-|
D ------------------------------------------------------------|
A ------------------------------------------------------------|
E ------------------------------------------------------------|

Verse 2 (x2)

E ------------------------------------------------------------|
B ---0--3--2-----5----3---7--5---8---7---3---5---2------------|
G ---------------------------------------------------4---4--4-|
D ------------------------------------------------------------|
A ------------------------------------------------------------|
E ------------------------------------------------------------|

Chorus (x2)

E ------------------------------------------------------------|
B -7--7--8--7---5--5---5---7---5---3---3---3---5--3--2----2---|
G -----------------------------------------------------2----4-|
D ------------------------------------------------------------|
A ------------------------------------------------------------|
E ------------------------------------------------------------|
Tap to rate this tab
# A B C D E F G H I J K L M N O P Q R S T U V W X Y Z