Song name
# A B C D E F G H I J K L M N O P Q R S T U V W X Y Z

Arcade Fire - Abrahams Daughter Acoustic tab

Abraham's Daughter~Arcade Fire (from the Songs of District 12 and Beyond)
Standard tuning
For acoustic guitar
STRUM EM CHORD(let it ring) TO START THEN:
e|--0---3---2---5---3---7---5---8---7---3---5---2----|
B|----0---0---0---0---0---0---0---0---0---0---0---0--|
G|---------------------------------------------------|
D|---------------------------------------------------|
A|---------------------------------------------------|
E|---------------------------------------------------|

e|---------------------------------------|
B|------0-------0-------0-------0--------|
G|----0---0---0---0---0---0---0---0------|
D|--2-------2-------2-------2------------|  x2 include line above
A|---------------------------------------|
E|---------------------------------------|

e|--7---7-8-7---5---5---5-7-5---3---3---3-5-3---2---2-0---|
B|------------------------------------------------3-------|
G|--------------------------------------------------------|
D|--------------------------------------------------------|
A|--------------------------------------------------------|
E|--------------------------------------------------------|

e|--0--0--0-0--0----|
B|--0--0--0-0--0----|
G|--0--0--0-0--0----| x2
D|--2--2--2-2--2----|
A|--2--2--2-2--2----|
E|--0--0--0-0--0----|

e|--0---3---2---5---3---7---5---8---7---3---5---2----|
B|----0---0---0---0---0---0---0---0---0---0---0---0--|
G|---------------------------------------------------|
D|---------------------------------------------------|
A|---------------------------------------------------|
E|---------------------------------------------------|

e|---------------------------------------|
B|------0-------0-------0-------0--------|
G|----0---0---0---0---0---0---0---0------|
D|--2-------2-------2-------2------------|  x2 include line above
A|---------------------------------------|
E|---------------------------------------|

e|--7---7-8-7---5---5---5-7-5---3---3---3-5-3---2---2-0---|
B|------------------------------------------------3-------|
G|--------------------------------------------------------| x2
D|--------------------------------------------------------|
A|--------------------------------------------------------|
E|--------------------------------------------------------|




e|--0--0--0-0--0----|
B|--0--0--0-0--0----|
G|--0--0--0-0--0----| x3
D|--2--2--2-2--2----|
A|--2--2--2-2--2----|
E|--0--0--0-0--0----|

Guitar 1
e|--0---3---2---5---3---7---5---8---7---3---5---2----|
B|----0---0---0---0---0---0---0---0---0---0---0---0--|
G|---------------------------------------------------|
D|---------------------------------------------------|
A|---------------------------------------------------|
E|---------------------------------------------------|

e|---------------------------------------|
B|------0-------0-------0-------0--------|
G|----0---0---0---0---0---0---0---0------|
D|--2-------2-------2-------2------------|  x2
A|---------------------------------------|
E|---------------------------------------|

Overlap these parts to make it sound like the recording. If you're playing solo then 
just play the guitar 1 part.

Guitar 2
e|--7---7-8-7---5---5---3-5-3---2---2---0--3-2------0---0--|
B|----------------------------------------------3------3---|
G|---------------------------------------------------------|
D|---------------------------------------------------------|
A|---------------------------------------------------------|
E|---------------------------------------------------------|

e|--7---7-8-7---5---5---3-5-3---2---2---0--3-2------0-----|
B|----------------------------------------------3---------|
G|--------------------------------------------------------|
D|--------------------------------------------------------|
A|--------------------------------------------------------|
E|--------------------------------------------------------|


Outro after distortion:

E|--------11--------11-----11------11-----11-------9-------|
B|----11------11-------11------11------11------11----------|
G|---------------------------------------------------------|
D|---------------------------------------------------------|
A|---------------------------------------------------------|
E|---------------------------------------------------------|
let ring.
Tap to rate this tab
# A B C D E F G H I J K L M N O P Q R S T U V W X Y Z