Song name
# A B C D E F G H I J K L M N O P Q R S T U V W X Y Z

Arcade Fire - The Suburbs tab

 Chords: C,Am,E,G and D(instead of G on the chorus)

 Intro/Verse:
 ---0---0---0---1--------------|
 ---1---1---0---0--------------|
 ---0---2---1---0--------------|
 ---2---2---2---0--------------|
 ---3---0---2---2--------------|
 ---------------3--------------|


 Chorus:
 Sometimes I can't believe it...
 ---0---0---0---2--------------|
 ---1---1---0---3--------------|
 ---0---2---1---2--------------|
 ---2---2---2---0--------------|
 ---3---0---2------------------|
 ------------------------------|
 
 Ending:
 ---0---0---0---1-------0------|
 ---1---1---0---0-------1------|
 ---0---2---1---0-------0------|
 ---2---2---2---0-------2------|
 ---3---0---2---2-------3------|
 ---------------3--------------|
Tap to rate this tab
# A B C D E F G H I J K L M N O P Q R S T U V W X Y Z