Song name
# A B C D E F G H I J K L M N O P Q R S T U V W X Y Z

Arcade Fire - Never Over Hey Orphius tab

Heres the Guitar riff for Never Over by Arcade Fire. Great sounding riff, experimented 
with this a few ways but this seems the most logical way to play it. This is my first tab 
so there may be an error in there somewhere.

Standard Tuning


E------------------------------------------------------------------------------------|
B------------------------------------------------------------------------------------|
G------------------------------------------------------------------------------------|
D------------------------------------------------------------------------------------|
A -----------------------------------------------------------------------------------|
E----- 13-13-13-12-10-5------5-5-5/13-12-12-----5-5/13-13-13-12-10-5-----------------|

E------------------------------------------------------------------------------------|
B------------------------------------------------------------------------------------|
G------------------------------------------------------------------------------------|
D------------------------------------------------------------------------------------|
A -----------------------------------------------------------------------------------|
E---------5-5-5/13-12-12-------------------------5-5/13-13-13-15-15------------------|

E------------------------------------------------------------------------------------|
B------------------------------------------------------------------------------------|
G------------------------------------------------------------------------------------|
D------------------------------------------------------------------------------------|
A -----------------------------------------------------------------------------------|
E---------8-8---8/13-15-15-----------------------8---8/15-15-15-13-12-12-------------|

E------------------------------------------------------------------------------------|
B------------------------------------------------------------------------------------|
G------------------------------------------------------------------------------------|
D------------------------------------------------------------------------------------|
A -----------------------------------------------------------------------------------|
E---------8-8---8-/13-15-15------ -----------------8---8/13-13-13-12-10-5------------|
Tap to rate this tab
# A B C D E F G H I J K L M N O P Q R S T U V W X Y Z