Song name
# A B C D E F G H I J K L M N O P Q R S T U V W X Y Z

Arcade Fire - Haiti tab

HAITI (LIVE)

by Arcade Fire

These times are based very specifically on this
video, so watch it for the timing. (plus, it's
a fantastic video)

http://www.youtube.com/watch?v=Y6BMyqSdOXc


Standard Tuning

00:15

   G         Em          G
                                    
|--7---------7----------7-----|
|--8-----8---8-------8--8-----|
|--7-------7h9-----9----7-----|
|-----------------------------|
|-----------------------------|
|-----------------------------|


00:51
                    G                   Em
                     
|-10-10-10-10-7-----7---------7-10-7----7---|
|---------------10--8----8-10--------10-8---|
|-------------------7-------------------9---|
|-------------------------------------------|
|-------------------------------------------|
|-------------------------------------------|

01:11
  
|--------------------------------------|
|----88------8---8------88------8---8--|
|-77----7--7---7-----99----9--9---9----|
|--------------------------------------|
|--------------------------------------|
|--------------------------------------|

01:29

|-xxxxx........................--------|
|-88888........................--------|
|-99999........................--------|
|-xxxxx........................--------|
|-xxxxx........................--------|
|-xxxxx........................--------|


1:59

|-777...................7-777.....................--|
|-888...................8-888.....................--|
|-777...................7h999.....................--|
|---------------------------------------------------|
|---------------------------------------------------|
|---------------------------------------------------|


2:24

   G         Em          G
                               
|--7---------7----------7-----|
|--8-----8---8-------8--8-----|
|--7-------7h9-----9----7-----|
|-----------------------------|
|-----------------------------|
|-----------------------------|


3:02
 
                   G                   Em
                     
|-10-10-10-10-7-----7---------7-10-7----7---|
|---------------10--8----8-10--------10-8---|
|-------------------7-------------------9---|
|-------------------------------------------|
|-------------------------------------------|
|-------------------------------------------|


3:20

|-77-7-10-10-10-10-7-------8-88-8888\777----|
|-88-8---------------10-8--8-88-8888-888----|
|-77-7---------------------9-99-9999-999----|
|-------------------------------------------|
|-------------------------------------------|
|-------------------------------------------|


3:42

  G             Em
|-3...........------------------------------|
|-0...........--0..............-------------|
|-0...........--0..............-------------|
|-0...........--2..............-------------|
|-2...........--2..............-------------|
|-3...........--0..............-------------|


For the end of the song, I pretty much just crash the
chords G and Em, throw in whatever you like, they play 
it differently every time
Tap to rate this tab
# A B C D E F G H I J K L M N O P Q R S T U V W X Y Z