Song name
# A B C D E F G H I J K L M N O P Q R S T U V W X Y Z

Arcade Fire - Neighborhood 3 Power Out tab

ARCADE FIRE
NEIGHBORHOOD #3 (POWER OUT)

DROP D TUNING

(Note: Once again, no rhythm is provided here, but I put the words directly above the
chords as they are played. My thanks go out to whomever it was that posted the other
two versions of this song on this site as this is merely an expansion of those. Enjoy!)

 -Steve

(INTRO)

  D    F       D    F         F
E------13-13--------13-13----------------------------------------------|
B------13-13--------13-13----------6-6------------6-6------------------|
G------14-14--------14-14----------5-5------------5-5------------------|
D-0-0----------0-0------------3-3--7-7-------3-3--7-7------------------|
A-0-0----------0-0------------3-3--8-8-------3-3--8-8------------------|
D-0-0----------0-0------------3-3------------3-3-----------------------|

(VERSE)

1 I woke up ... power out    not really ... shout about
2 Ice has ...   parent's ... have any ...   have any plans
  A
E---------------5-5-------------------------5-5------------------------|
B-2-2-----------5-5----------2-2------------5-5------------------------|
G-2-2-----------6-6----------2-2------------6-6------------------------|
D-2-2-----------7-7----------2-2------------7-7------------------------|
A-0-0-----------0-0----------0-0------------0-0------------------------|
D----------------------------------------------------------------------|

  D
E---------------5-5-------------------------5-5------------------------|
B-3-3-----------7-7----------3-3------------7-7------------------------|
G-2-2-----------7-7----------2-2------------7-7------------------------|
D-0-0-----------0-0----------0-0------------0-0------------------------|
A----------------------------------------------------------------------|
D----------------------------------------------------------------------|

  I went out in - to the night   I went out to    pick a fight with anyone
  Kids are dying  in the snow    look at them go  look at them go
  F
E-----------------1-1-----------------------------1-1------------------|
B-1-1-------------1-1------------1-1--------------1-1------------------|
G-2-2-------------2-2------------2-2--------------2-2------------------|
D-3-3-------------3-3------------3-3--------------3-3------------------|
A-3-3-------------3-3------------3-3--------------3-3------------------|
D----------------------------------------------------------------------|

  Dm
E----------------------------------------------------------------------|
B----------------------------------------------------------------------|
G-2-2--5-5-2----------2-2--5-5-2---------------------------------------|
D-3-3--3-3-3----------3-3--3-3-3---------------------------------------|
A-0-0--0-0-0----------0-0--0-0-0---------------------------------------|
D-0-0--0-0-0----------0-0--0-0-0---------------------------------------|

(CHORUS)

           And the   po - wer's out   in the  heart    of
   G5                F          Bb            Am(add6) Am
E---------------------------------------------1--------0---------------|
B--------------------6----------3-------------1--------1---------------|
G--------------------5----5-----3-------------2--------2---------------|
D--5-5-5-5-----------3----3-----3-------------2--------2---------------|
A--5-5-5-5-----------3----3-----1-------------0--------0---------------|
D--5-5-5-5-----------3----3--------------------------------------------|


   man     take it   from your  heart  put it in       your
   G5                F          Bb            Am(add6) Am7
E---------------------------------------------1--------3---------------|
B--3-----------------6----------3-------------1--------1---------------|
G--0-----------------5----5-----3-------------2--------2---------------|
D--5-5-5-5-----------3----3-----3-------------2--------2---------------|
A--5-5-5-5-----------3----3-----1-------------0--------0---------------|
D--5-5-5-5-----------3----3--------------------------------------------|

   hand!
E----------------------------------------------------------------------|
B----------------------------------------------------------------------|
G----------------------------------------------------------------------|
D----------------------------------------------------------------------|
A--8-7-5-3-1---0-0--0-0-0---------------8-7-5-3-1---0-0--0-0-0---------|
D--0-0-0-0-0---0-0--0-0-0---------------0-0-0-0-0---0-0--0-0-0---------|

E----------------------------------------------------------------------|
B----------------------------------------------------------------------|
G----------------------------------------------------------------------|
D----------------------------------------------------------------------|
A--0-1-3-5---0-0--0-0-0-----------------0-1-3-5---0-0--0-0-0-----------|
D--0-0-0-0---0-0--0-0-0-----------------0-0-0-0---0-0--0-0-0-----------|
Tap to rate this tab
 
# A B C D E F G H I J K L M N O P Q R S T U V W X Y Z