Guitaretab - guitar tabs
Song name
# A B C D E F G H I J K L M N O P Q R S T U V W X Y Z

Arcade Fire - Headlights Look Like Diamonds tab

Headlights Look Like Diamonds (Live at the ACL Festival)
I tabbed for guitar & bass, this is how I play it, and I think itís a bit more
informative than any other tabs Iíve found for this song.  Enjoy.

http://www.youtube.com/watch?v=jJzDxUa5A4M

Guitar (standard tuning)
Verse (from beginning)
-------------------------------------------------------------|
-------9------------9-----------9--------------9-------------|
--9----------9------------9------------9---------------------|
-----9----9-----9-----9-----9-----9------9------9------------|
-------------------------------------------------------------|
-------------------------------------------------------------|

-------------------------------------------------------------|
--------9--------------9-------------------------------------|
--8------------8-------------8-------11h9---8----------------|
-----8-----8-------8-----8------8----------------8-----9-----|
-------------------------------------------------------------|
-------------------------------------------------------------|

Chorus

(1:41)
---------------------------------------|
------9-------9--------9--------9------|
--9-------9--------9--------9----------|
----9---9---9----9---9---9----9----9---|
---------------------------------------|
---------------------------------------|

---------------------------------------|
------9--------9--------9--------9-----|
--11------11-------11-------11---------|
----9---9----9---9----9---9----9---9---|
---------------------------------------|
---------------------------------------|

---------------------------------------------------|
------12-----------12-----------12----------12-----|
-13----------13-----------13----------13-----------|
----14---14-----14----14-----14----14----14----14--|
---------------------------------------------------|
---------------------------------------------------|
[ Tab from: http://www.guitaretab.com/a/arcade-fire/74040.html ]
---------------------------------------|
------9--------9--------9--------9-----|
--11------11-------11-------11---------|
----9---9----9---9----9---9----9---9---|
---------------------------------------|
---------------------------------------|


Bass (standard tuning)

(0:16)
-----------------------------------------------------------------------|
-----------------------------------------------------------------------|
--7-7-7-(7)(let ring)----------7777--------------7777-------------7777-|
-----------------------------------------------------------------------|

---------------------------------------------------------------------------|
---6-6----------------6-6--------------------------------------------------|
---------7--7--7-7---------7--7--7-7----7-7--6--6--6-6----6-6--------------|
-----------------------------------------------------------------7--7--7-7-|

---------------------------------------------------------------------------|
---6-6---------------6-6----------9-9--------------------------------------|
--------7--7--7-7---------7--7-----------7-7--6--6--6-6----6-6-------------|
-----------------------------------------------------------------7--7--7-7-|

(1:27)
-------------------------------------------------------------------|
-------------------------------------------------------------------|
--7777777777777777-99999999----------------------------------------|
-----------------------------------------9999-7777-----------------|

(1:41)
---------------------------------------------------------------------------|
---------------------------------------------------------------------------|
--7(let ring)--------------(slide)/0-------0--2(let ring)---2--0(let ring)-|
---------------------------------------------------------------------------|

(2:33)
-------------------------------------------------------------------------|
-------------------------------------------------------------------------|
--7777777777777777000000000000000022222222222222220000000000000000-------|
-------------------------------------------------------------------------|

Fin.
Related for Headlights Look Like Diamonds tab