Guitaretab - guitar tabs
Song name
# A B C D E F G H I J K L M N O P Q R S T U V W X Y Z

Arcade Fire - Neighborhood 4 7 Kettles tab

Might not be 100%, but at least it sounds much better than the tabs I found around here ;-p

intro
e----------0---0-----------0---0-----------0---0-----------0---0-----------|
h--------------------------------------------------------------------------|
g--------6---6---6-------6---6---6-------6---6---6-------6---6---6---------|
D------7-------------6-7-------------6-7-------------6-7-------------------|
A------------------7---------------7---------------7-----------------------|
E--------------------------------------------------------------------------|

verse
e----------0---0---0-------0---0-----------0---0-----------0---0---0-------|
h--------------------------------------------------------------------------|
g--------9---9---9---9---9---9---9-------6---6---6-------6---6---6---6-----|
D--7-9-11--------------11----------109-7-------------6-7-------------------|
A--------------------------------------------------7-----------------------|
E--------------------------------------------------------------------------|

e----------0---0---0-------0---0-----------0---0-----------0---0---0-------|
h--------------------------------------------------------------------------|
g--------7---7---7---7---7---7---7-------6---6---6-------6---6---6---6-----|
D------9---------------9-----------9-8 7-------------6-7-------------------|
A--------------------------------------------------7-----------------------|
E--------------------------------------------------------------------------|

refrain
e--------------------------------------------------------------------------|
h--------------------------------------------------------------------------|
g--------------------------------------------------------------------------|
D----------11--11--11------11--11--11------7---7---7-------7---7---7-------|
A--------9---9---9---9---9---9---9---9---7---7---7---7---7---7---7---7-----|
E------10--------------10--------------5---------------5-------------------|
[ Tab from: http://www.guitaretab.com/a/arcade-fire/83813.html ]
e--------------------------------------------------------------------------|
h--------------------------------------------------------------------------|
g--------------------------------------------------------------------------|
D----------11--11--11------11--11--11------7---7---7-------7-------7-------|
A--------9---9---9---9---9---9---9---9---7---7---7---7---7---7---7---7-----|
E------10--------------10--------------5---------------5-------4-----------|

e----------0---0---0-------0---0---0-------0---0---0-------0---0---0-------|
h--------------------------------------------------------------------------|
g------------3---3---3-------3---3---3-------4---4---4-------4---4---4-----|
D--------4---------------4---------------4---------------4-----------------|
A--------------------------------------2---------------2-------------------|
E------2---------------2---------------------------------------------------|

e----------0---0-----------0---0-----------0---0-----------0---0-----------|
h--------------------------------------------------------------------------|
g--------6---6---6-------6---6---6-------6---6---6-------6---6---6---------|
D------7-------------6-7-------------6-7-------------6-7-------------------|
A------------------7---------------7---------------7-----------------------|
E--------------------------------------------------------------------------|

I am waitiní ítil I donít know when
cause Iím sure itís gonna happen then
Time keeps creepiní through the neighborhood
Killing old folks, wakiní up babies just like we knew it would

All the neighbors are startiní up a fire
Burning all the old folks the witches and the liars
My eyes are covered by the hands of my unborn kids
but my heart keeps watchiní through the skin of my eyelids

They say a watched pot wonít ever boil
Well I closed my eyes and nothiní changed
Just some water getting hotter in the flames

Itís not a lover I want no more
and itís not heaven Iím pining for
But thereís some spirit I used to know
Thatís been drowned out by the radio

They say a watched pot wonít ever boil
You canít raise a baby on motor oil
Just like a seed down in the soil you gotta give it time
Related for Neighborhood 4 7 Kettles tab