Song name
# A B C D E F G H I J K L M N O P Q R S T U V W X Y Z

Arcade - Cry No More tab

----------------------------------------------------------------------------
			     Cry No More - Arcade
----------------------------------------------------------------------------
Tabbed by: joey5150
Email: joey@harlannet.com

Tuning: Standard - E,A,D,G,B,e

Rob did a great job on the original tab for this song but thought I'd add the other 
intro/verse to make it complete..Thanks Rob

                 repeat
Intro (Clean) |   (x7)  |

e|------------------------------------------------------------------|
B|----5---5------------------5----4----5----5----4----5----5----5---|
G|-- 4---4-------4----6-----4-4--4-4--4-4--4-4--4-4--4-4--4-4--4-4--|
D|--4---4-------4-4--4-4---2----2----2----2----2----2----2----2-----|
A|------------------------------------------------------------------|
E|-------------2----2-----------------------------------------------|

Verse (with Rob's tab)

     repeat
  |   (x4)  |

e|------------------------------------------------------------------|
B|---------------5----4----4----4----4----5----5----5---------------|
G|---4----6-----4-4--4-4--4-4--4-4--4-4--4-4--4-4--4-4--------------|
D|--4-4--4-4---2----2----2----2----2----2----2----2-----------------|
A|------------------------------------------------------------------|
E|-2----2-----------------------------------------------------------|

                             |join other guitar w/ distortion|

e|------------------------------------------------------------------|
B|------------------------------------------------------------------|
G|------------------------------------------------------------------|
D|---7----9----6-----11---------7----7-------9----9-----------------|
A|--7-7--9-9--6-6--11--11------7-7--7-7-----9-9--9-9----------------|
E|-5----7----4----9-----------5----5-------7----7-------------------|
Tap to rate this tab
 
# A B C D E F G H I J K L M N O P Q R S T U V W X Y Z