Song name
# A B C D E F G H I J K L M N O P Q R S T U V W X Y Z

Arcane Roots - You Are tab

Intro
(played with top note tapped / hammer ons and pull offs)
E|--15-8-11-15-8-10--------------------------------------------|
B|------------------15-8-11-15-8-11-16-8-11-8-15-8-11----------|
G|----------------------------------------------------14-8-10--|
D|-------------------------------------------------------------|
A|-------------------------------------------------------------|
E|-------------------------------------------------------------|


E|------------------------------|
B|------------------------------|
G|------------------------------|
D|-15-8-10-13-8-10-13/15\13-10*-| x4
A|------------------------------|
E|------------------------------|
*dont play on last repeat


Pre Verse
E|--------------------------|--------------------------|
B|-----6----4-4--6h8p6------|-----6----4-4-------------|
G|-----5----5-5-------8-7-5-|-----5----5-5----3-----5--|
D|--3--3--5-6-6-------------|--3--3--5-6-6--1---0-3----|
A|--------------------------|--------------------------|
E|--------------------------|--------------------------|

E|--------------------------11-|----------------------------|
B|-----6----4-4--9h11p9---9----|-----6----4-4--4h6p4--------|
G|-----5----5-5---------12-----|-----5----5-5--------6-5-3--|
D|--3--3--5-6-6----------------|--3--3--5-6-6---------------|
A|-----------------------------|----------------------------|
E|-----------------------------|----------------------------|

Verse
E|--------------------------|--------------------------|
B|-----6----4-4--6h8p6------|-----6----4-4-------------|
G|-----5----5-5-------8-7-5-|-----5----5-5----3-----5--|
D|--3--3--5-6-6-------------|--3--3--5-6-6--1---0-3----|
A|--------------------------|--------------------------|
E|--------------------------|--------------------------|

E|--------------------------|--------------------------|
B|--------------------------|--------------------------|
G|-----6-x-6--3-3-x-3-3-x-x-|--------------------------|
D|-----6-x-6--3-3-x-3-3-x-x-|-----6--3---------5b6b5-3-|
A|--4--4-x-4--1-1-x-1-1-x-x-|--4--4----4-3-1-----------|
E|--------------------------|----------------4---------|

E|------------------------11-|---------------------------|
B|-----6----4-4--9h11p9--9---|-----6----4-4--4h6p4-------|
G|-----5----5-5--------12----|-----5----5-5--------6-5---|
D|--3--3--5-6-6--------------|--3--3--5-6-6--------------|
A|---------------------------|-------------------------3-|
E|---------------------------|---------------------------|

E|--------------------------|--------------------------|
B|--------------------------|--------------------------|
G|-----6-x-6--3-3-x-3-3-x-x-|--------------------------|
D|-----6-x-6--3-3-x-3-3-x-x-|-----6--3-----------------|
A|--4--4-x-4--1-1-x-1-1-x-x-|--4--4----4-3-1-----------|
E|--------------------------|----------------4--3------|

Listen for timings
E|------|-------------|-----|-----|
B|--10--|--6--6/8-8-8-|-----|-----|
G|--10--|--6----------|--5--|--7--|
D|--10--|--6----------|--6--|--8--|
A|--8---|--4----------|--6--|--8--|
E|------|-------------|--4--|--6--|

Pre Verse/Verse
E|----(18\16)--------------------------------|
B|-----18\16---------------------------------|
G|----------------15----14b15b14-------------|
D|-------------------------------151515-13---|x6
A|-------------------------------------------|
E|-13---------13-----13----------------------|
(only play in pre verse)

E|------------------------------|----------------------------------|
B|-----13-----------13--14/13---|------15----------15--------------|
G|---13----13-----13--13-----13-|---------15----------15-14b15b14--|
D|-11----------11---------------|----15---------15-----------------|
A|------------------------------|-13---------13--------------------|
E|------------------------------|----------------------------------|
then back to pre verse (twice) and follow on.

Build (palm muted)
E|------|------|-----|-----|
B|------|------|-----|-----|
G|------|------|-(5)-|-(7)-|
D|--15--|--11--|--6--|--8--|x2
A|--15--|--11--|--6--|--8--|
E|--13--|--9---|--4--|--6--|

'you aaarre'
E|--1--|-----|--1--|--0--|
B|--3--|--3--|--1--|--1--|
G|--2--|--3--|--2--|--0--|
D|--0--|--3--|--3--|--2--|x2
A|-----|--1--|--3--|--3--|
E|-----|-----|--1--|-----|

Solo (same as intro patterns)
E|-17-10-13-17-10-12--------------------------------|
B|-------------------17-10-13-----------------------|
G|----------------------------16-10-12--------------|
D|-------------------------------------17-10-12-10--|x4
A|--------------------------------------------------|
E|--------------------------------------------------|

E|-17-10-13-17-10-12-18-10-13-17-10-13-15-10-13-17-10-13-18-10-13-20-10-13-|

E|-18-10-13-20-10-13-22-|

E|-------------------------------|
B|-------------------------------|
G|--5-----10----12-----14---19---|
D|--5-----10----12-----x----x----|
A|--3-----8-----10-----12---17---|
E|-------------------------------|

'so lets build...'
E|--1--|-----|--1--|--3--|
B|--3--|--3--|--1--|--3--|
G|--2--|--3--|--2--|--4--|
D|--0--|--3--|--3--|--5--|repeat as necessary
A|-----|--1--|--3--|--5--|
E|-----|-----|--1--|--3--|


Outro
E|-----5----------------------------------|   |-----|
B|-------6------6--------6----------------|   |-----|
G|---7--------7---7--------5--------10p9--|   |--7--|
D|-0-------------------7---------10-------|x4 |--8--|
A|-------------------8--------------------|   |--8--|
E|----------6-----------------8-----------|   |--6--|

(technically there are a few more notes on the track but as its just a connection to the 
next track I've left them out)



Recorded a cover of this tab so if you are interested:
http://www.youtube.com/watch?v=neyVFQ8hY1Q&feature=youtu.be
Tap to rate this tab
 
# A B C D E F G H I J K L M N O P Q R S T U V W X Y Z