Song name
# A B C D E F G H I J K L M N O P Q R S T U V W X Y Z

Arcane Roots - Habibty tab

(Can be played with kill switch)
E|------------------------------------------------------------------|
B|------------------------------------------------------------------|
G|----7---------------------7------7-----------------------0h4h6h7--|
D|--------7---7-7-----7-7--------------7---7-7----7-0h4h6h7---------|
A|------------------------------------------------------------------|
E|--4---4---4-----4-------4----5-4----4--4-----4--------------------|

Intro
E|--------------------------------------------------------------|
B|--------------------------------------------------------------|
G|----7---------------------7------7--------------------7-------|
D|--------7---7-7-----7-7--------------7---7-7----7-7-----------|
A|--------------------------------------------------------------|
E|--4---4---4-----4-------4----5-4----4--4-----4------4---------|

E|---------------------------------------------------------------|
B|---------------------------------------------------------------|
G|---7------------------------7-------7----------------------7---|
D|--------7-----7-7-----7-7-----------------7---7-7----7-7-------|
A|---------------------------------------------------------------|
E|-4----4----4-------4------4-----5-4-----4---4------4-----4-----|

E|---------------------------------------------------------|
B|---------------------------------------------------------|
G|----7----------3-3-3-3----3----------7---------------7---|
D|--------7------5-5-5-5----5--------------7-7---7-7-------|
A|---------------------------------------------------------|
E|--4---4---0--5----------0---6~-5-4-0---4-----4-----4-----|

E|-------------------------------------------------------------------------|
B|-------------------------------------------------------------------------|
G|----7--------------------------------------------------------------------|
D|------------------7-7----------------------------------------------------|
A|---------------------------------------14-14-14-14-14-13-13-14-14-14-14--|
E|--4-------5~--4-0-----0---0-5-4-0------12-12-12-12-12-12-12-12-12-12-12--|

Verse
E|----11----------9------------9-------------------|
B|-------12---------12-----------12-------12---12--|
G|----------13---------11-----------9--------------|
D|--------------------------11----------9----8-----|x2
A|-11-----------9----------------------------------|
E|-------------------------------------------------|

E|-----------------------------------------------------|
B|----12-----------12-----------12-----------12--------|
G|-------13-13--------13-13--------11-11--------11-11--|
D|-11-----------11-------------------------------------|
A|---------------------------14-----------13-----------|
E|-----------------------------------------------------|

E|-----------------------------------------------------|
B|----12-----------12-----------12-----------12--------|
G|-------13-13--------13-13--------13-13--------13-13--|
D|-11-----------11-----------14-----------13-----------|
A|-----------------------------------------------------|
E|-----------------------------------------------------|

Break
E|--------------------------------------------------------------|
B|--------------------------------------------------------------|
G|----7---------------------7------7--------------------7-------|
D|--------7---7-7-----7-7--------------7---7-7----7-7-----------|x2
A|--------------------------------------------------------------|
E|--4---4---4-----4-------4----5-4----4--4-----4------4---------|

Second Verse is just bass
Then
E|-------------------------------------------------------------|
B|-12-12--12-12---12-12--12-12---12-12--12-12---12-12--12-12---|
G|-13-13--13-13---13-13--13-13---11-11--11-11---11-11--11-11---|
D|-11-11--11-11---11-11--11-11---9--9---9--9----8--8---8--8----|
A|-------------------------------------------------------------|
E|-------------------------------------------------------------|

E|-------------------------------------------------------------|
B|-12-12--12-12---12-12--12-12---12-12--12-12---12-12--12-12---|
G|-13-13--13-13---13-13--13-13---13-13--13-13---13-13--13-13---|
D|-11-11--11-11---11-11--11-11---14-14--14-14---13-13--13-13---|
A|-------------------------------------------------------------|
E|-------------------------------------------------------------|

E|----------------------------------------------------|
B|----------------------------------------------------|
G|----------------------------------------------------|
D|-11-11--11-11---11-11--11-11---7-7--7-7---7-7--7-7--|
A|-11-11--11-11---11-11--11-11---7-7--7-7---7-7--7-7--|
E|-9--9---9--9----9--9---9--9----5-5--5-5---5-5--5-5--|

E|---------------------------------------------|
B|---------------------------------------------|
G|---------------------------------------------|
D|---4-4--4-4--4-4--4-4---4-4--4-4--4-4--4-4---|
A|---4-4--4-4--4-4--4-4---4-4--4-4--4-4--4-4---|
E|---2-2--2-2--2-2--2-2---2-2--2-2--2-2--2-2---|

Middle Section
E|--------2---------0------0------------------0---6--7--7-------|
B|--4-----4--4------0------0---4-----------4--0-----------------|
G|--4--4-----4---3------1------4-4-3-1-----4---------------9----|
D|-----4---------4------2--------------4-2--------4-------------|
A|--2--------------------------2-----------2------------7-------|
E|---------------2------0---------------------------------------|

E|----9/11\9-----0---------2--4------|
B|---------------0-------0-------4---|
G|------------8--------3-------------|
D|------------9-----4---------2------|
A|-----------------------------------|
E|--0---------7----------------------|

E|-------------2------0-----0------4--------6-----6-----6-----6---7--|
B|-----4----4--4------0-----0---5--5--4-----5--5-----5-----5----5----|
G|--4--4----4------3-----1------6-----4--4---------------------------|
D|--6--------------4-----2---------------4--4------------------------|
A|----------2-------------------4-----2------------------------------|
E|--4--------------2-----0-------------------------------------------|

Little Gap from guitar
Then: (listen to track for strumming pattern)
E|--0-----0-----0-----0-----------0----------------------|
B|--5-----0-----0-----5-----5-----0----------------------|
G|--6-----4-----3-----6-----6-----3----0-4-6--6-6-6-8-9--|
D|--6-----4-----4-----6-----7-----4----0-----------------|
A|--4-----2-----4-----4-----7-----4----0-2-4--4-4-4-6-7--|
E|--------------2-----------5-----2----------------------|

E|---------------------------------------------------------------|
B|--4-----------------4-----11-----9-----------------------------|
G|--4-----3-----1-----4------------------9---------13--13--------|
D|--4-----4-----2-----4-----11-----9-----9-----------------x-x---|
A|--2-----4-----2-----2-----9------7-----7---------11--11--x-x---|
E|--------2-----0------------------------0------0----------------|

E|------------------------------------|
B|------4-----------5---4-------------|
G|--4---4---3---1---6---4---3---------|
D|--6---4---4---2---6---4---4---------|
A|--6---2---4---2---4---2---4---------|
E|--4-------2---0-----------2---------|

E|---------------------------------------------------------------|
B|--4-----------------4-----11-----9-----------------------------|
G|--4-----3-----1-----4------------------9---------13--13--------|
D|--4-----4-----2-----4-----11-----9-----9-----------------x-x---|
A|--2-----4-----2-----2-----9------7-----7---------11--11--x-x---|
E|--------2-----0------------------------0------0----------------|

E|------------------------------------|
B|------------------------------------|
G|--4-----4--4-4--4------3--3---1--1--|
D|--4--4--4--4-4--4------4--4---2--2--|x3
A|--2-----2--2-2--2h4----4--4---2--2--|
E|-----4-----------------2--2---0--0--|

E|-------------------------------------------------------|
B|-------------------------------------------------------|(This bit is a very
G|------------------------------------------3-3-3-3-3-3--|bare version of the
D|--2----2--4-6----1----------------4-4-4-4-4-4-4-4-4-4--|real thing)
A|----4---------2-----2---1---1--------------------------|
E|--------------------------2---2-2---2-2-2-2-2-2-2-2-2--|

Outro
E|------------------------------------------------------------|
B|------------------------------------------------------------|
G|--3b-----3--------------3------------3---------------3------|
D|------------------------------------------------------------|
A|------------------------------------------------------------|
E|------2---0-1---1-0-1-0---0--1--2~-1---0-1---1-0-1-0---0-1--|

E|----------------------------------------------------------------|
B|----------------------------------------------------------------|
G|--3------3----------------3--------3------3-----3---------------|
D|----------------*-*--*-*----------------------------------------|
A|----------------2-2--2-2----------------------------------------|
E|----2-1----0-1--0-0--0-0----0--1-----0-1----0-1----0-1---2b-3b--|
*Palm Muted

E|------------------------------------|
B|------------------------------------|
G|---3------3------3------------------|
D|------------------------------------|
A|------------------------------------|
E|-----0-1----0-1----0-1---2b-3b-1b---|


And there it is. Hopefully you can follow that.

I've done a version of the tab if you are interested:
http://www.youtube.com/watch?v=h1Gy-jgO5ng&feature=youtu.be
Tap to rate this tab
 
# A B C D E F G H I J K L M N O P Q R S T U V W X Y Z