Song name
# A B C D E F G H I J K L M N O P Q R S T U V W X Y Z

Arcane Roots - Long Low tab

Intro
E|------------------------------------------|
B|-5----------------3-3-----5---------------|
G|-------4-----4---------x--------4-----4---|
D|----x-----x------------x-----x-----x------|x4
A|-4--x-----x-------2-2--x--4--x-----x------|
E|----x--4--x--3---------------x--4--x--3---|

Verse
E|------------------4/5/7----------------------------------|
B|----5h7p5---------5/7/9------5h7p5----------5h7p5-4h5p4--|
G|----------4h6p4--------------------4h6p4-----------------|
D|------------------------------------------6--------------|
A|--4-------------4---------4------------------------------|
E|---------------------------------------------------------|

E|----0---0---0-----------------0---0---0--------------|
B|------0---0---4-2-0-------------0---0---4-2-0--------|
G|--------------------3-2-0---------------------3-2-0--|
D|--1------------------------2-------------------------|
A|-----------------------------------------------------|
E|-----------------------------------------------------|

E|------------------4/5/7---------------------4h7p4--------|
B|----5h7p5---------5/7/9------5h7p5----------------4h5p4--|
G|----------4h6p4--------------------4h6p4-----------------|
D|------------------------------------------6--------------|
A|--4-------------4---------4------------------------------|
E|---------------------------------------------------------|

E|----0---0---0-----------------0---0---0--------------|
B|------0---0---4-2-0-------------0---0---4-2-0--------|
G|--------------------3-2-0---------------------3-2-0--|
D|--1------------------------2-------------------------|
A|-----------------------------------------------------|
E|-----------------------------------------------------|

E|----------------------------------|
B|----------------------------------|
G|---4-4---7-7----4-4----10-10------|
D|----------------------------------|x4
A|----------------------------------|
E|---4-4---7-7----3-3----10-10------|

E|------------------------------|
B|--5-5----5-5----5-5----5-5----|
G|--6-6----6-6----6-6----6-6----|
D|--6-6----6-6----6-6----6-6----|
A|------------------------------|
E|------------------------------|

E|----0---0---0-----------------0---0---0--------------|
B|------0---0---4-2-0-------------0---0---4-2-0--------|
G|--------------------3-2-0---------------------3-2-0--|
D|--1------------------------2-------------------------|
A|-----------------------------------------------------|
E|-----------------------------------------------------|

E|------------------4/5/7---------------------4h7p4--------|
B|----5h7p5---------5/7/9------5h7p5----------------4h5p4--|
G|----------4h6p4--------------------4h6p4-----------------|
D|------------------------------------------6--------------|
A|--4-------------4---------4------------------------------|
E|---------------------------------------------------------|

E|----0---0---0-----------------0---0---0--------------|
B|------0---0---4-2-0-------------0---0---4-2-0--------|
G|--------------------3-2-0---------------------3-2-0--|
D|--1------------------------2-------------------------|
A|-----------------------------------------------------|
E|-----------------------------------------------------|

E|----------------------------------|
B|----------------------------------|
G|---4-4---7-7----4-4----10-10------|
D|----------------------------------|x4
A|----------------------------------|
E|---4-4---7-7----3-3----10-10------|

Break
E|-----------------------------------------------|
B|-5-----------------3-3-----5-------------------|
G|-------4-----4-4--------x--------4-----4-4-----|
D|----x-----x-------------x-----x-----x----------|x5
A|-4--x-----x--------2-2--x--4--x-----x----------|
E|----x--4--x--3-3--------------x--4--x--3-3--0--|
|

E|---------|---------|-----------------|---------|---------|
B|----5----|----1----|----7------------|---------|---------|
G|----6----|----2----|----7------------|----2----|----8----|
D|----7----|----3----|----7------------|----4----|----9----|
A|----7----|----3----|----5------------|----4----|----9----|
E|----5----|----1----|-----------------|----2----|----7----|

E|-------------------------------------|
B|-------------------------------------|
G|---4-5-4----1------4-5-4---8-----(8)-|
D|---5--------2------5-------9-----(8)-|
A|---5--------2------5-------9---------|
E|---3--------0------3-------7---------|

Outro (Clean)
E|------------11--------11-------|------------11--------11-------|
B|----------------------11-------|----------------------11-------|
G|------------11--------11-------|---13-------11--------11-------|
D|---14--------------------------|---14--------------------------|
A|---11--------------------------|---11-------14--------14-------|
E|---12--------------------------|---12--------------------------|

E|------------11--------11-------|------------11----11-----11--11------|
B|------------12--------11-------|------------12------12---11----11----|
G|---13-------11--------11-------|---13-------11--------11-11------11--|
D|---14--------------------------|---14--------------------------------|
A|---14-------14--------14-------|---14-------14-----------------------|
E|---12--------------------------|---12--------------------------------|

(Distortion)                 
E|----------------------------------|                       --------|
B|----0--------------7-------11-----|                       --------|alt
G|----1--------------8-------8------|repeat as necessary    ---8----|version
D|----2--------------9-------x------|                       ---8----|
A|----2--------------9-------9------|                       ---6----|
E|----0--------------7-------7------|                       ---7----| 
                             *                                 *
E|---------------|
B|---0-----------|
G|---1-----------|
D|---2-----------|
A|---2-----------|
E|---0-----------|


I've done and version of the tab if anyone is interested:
http://www.youtube.com/watch?v=7vS88jy8pnE&feature=youtu.be
Tap to rate this tab
# A B C D E F G H I J K L M N O P Q R S T U V W X Y Z