Song name
# A B C D E F G H I J K L M N O P Q R S T U V W X Y Z

Arcane Roots - Resolve tab

B|--14--| listen to track for rhythm pattern
G|--14--|

Intro
B|-----------------------------------------------------------|
G|-----------------------------------------------------------|
D|--2-4--4-4--4-4--4-4--4-4---4------7--7-7-77----9--9-9-99--|
A|--2-4--4-4--4-4--4-4--4-4---4------7--7-7-77----9--9-9-99--|
E|--0-2--0-2--0-2--0-2--0-2---0h2--0-5--0-5-05--0-7--0-7-07--|

B|-----------------------------------------------------------|
G|-----------------------------------------------------------|
D|--2-4--4-4--4-4--4-4--4-4---4------6--6-6-66----6--6-6-66--|
A|--2-4--4-4--4-4--4-4--4-4---4------7--7-7-77----6--6-6-66--|
E|--0-2--0-2--0-2--0-2--0-2---0h2--0-5--0-5-05--0-4--0-4-04--|

Verse (Crunch+delay)
E|-----------------------------------------------|
B|---------------------14------------------------|
G|------------------------13b(14)----------------|x4  *only play on  
D|---14-------------------------------13*--------|     4th repeat
A|------16---------------------------------------|
E|-----------------------------------------------|

Pre-chorus
E|--------------------------------------------------------------|
B|---t14p10p9---------------------------------------------------|
G|-------------t13p11p9--t13-p9---t13p11p9h11-------------------|
D|--------------------------------------------------t14--/--16--|
A|---------------------------------------------9h11-----h12-----|
E|--------------------------------------------------------------|

E|-----------------------------------------------------------------|
B|---t14p10p9------------------------------------------------------|
G|-------------t13p11p9--t13-p9---t13p11p9h11----------------------|
D|--------------------------------------------------t14--/--16\14--|
A|---------------------------------------------9h11-----h12--------|
E|-----------------------------------------------------------------|

Chorus
E|-----------(0)-----(0)------|
B|-----------(0)-----(0)------|
G|------------6-------8-------|
D|--4---------7-------9-------|
A|--4---------7-------9-------|x2
E|--2---------5-------7-------|

E|-------------0-----0------|    |--0-------0-------|
B|-------------0-----0------|    |--0-------0-------|
G|--6----------9-----8------|x3  |--6-------8-------|
D|--7----------x-----x------|    |--7-------9-------|
A|--7----------7-----6------|    |--7-------9-------|
E|--5----------9-----7------|    |--5-------7-------|

Break
B|-----------------------------------------------------------|
G|-----------------------------------------------------------|
D|--2-4--4-4--4-4--4-4--4-4---4------7--7-7-77----9--9-9-99--|
A|--2-4--4-4--4-4--4-4--4-4---4------7--7-7-77----9--9-9-99--|
E|--0-2--0-2--0-2--0-2--0-2---0h2--0-5--0-5-05--0-7--0-7-07--|

B|-----------------------------------------------------------|
G|-----------------------------------------------------------|
D|--2-4--4-4--4-4--4-4--4-4---4------6--6-6-66----6--6-6-66--|
A|--2-4--4-4--4-4--4-4--4-4---4------7--7-7-77----6--6-6-66--|
E|--0-2--0-2--0-2--0-2--0-2---0h2--0-5--0-5-05--0-4--0-4-04--|

Verse (Crunch+delay)
E|-----------------------------------------------|
B|---------------------14------------------------|
G|------------------------13b(14)----------------|x2  *only play on  
D|---14-------------------------------13*--------|     4th repeat
A|------16---------------------------------------|
E|-----------------------------------------------|

Pre-chorus
E|--------------------------------------------------------------|
B|---t14p10p9---------------------------------------------------|
G|-------------t13p11p9--t13-p9---t13p11p9h11-------------------|
D|--------------------------------------------------t14--/--16--|
A|---------------------------------------------9h11-----h12-----|
E|--------------------------------------------------------------|

E|-----------------------------------------------------------------|
B|---t14p10p9------------------------------------------------------|
G|-------------t13p11p9--t13-p9---t13p11p9h11----------------------|
D|--------------------------------------------------t14--/--16\14--|x2
A|---------------------------------------------9h11-----h12--------|
E|-----------------------------------------------------------------|


Chorus

middle Section
E|-------------------------------------------------------------------|
B|---14---------------------------------14---------------------------|
G|------13---------------16----------------13b(14)-----------16------|
D|--------------------------16-------------------------------16------|
A|-------------------------------------------------------------------|
E|-------------------------------------------------------------------|

Feedback into:
E|-------------------------------------------------------------------------|
B|-------------------------------------------------------------------------|
G|------------------------------------2-------------------------------1~---|
D|--2-4--4-4--4-4--4-4--4-4--4-4-4-------4-4--4-4--4-4--4-4--4-4-4---------|
A|--2-4--4-4--4-4--4-4--4-4--4-4-4--4----4-4--4-4--4-4--4-4--4-4-4--2------|
E|--0-2--0-2--0-2--0-2--0-2--0-2-0--0----0-2--0-2--0-2--0-2--0-2-0--0------|

E|----------------------------------------------------|
B|----------------------------------------------------|
G|----------------------------------6--------8--------|
D|--2-4--4-4--4-4--4-4--4-4--4-4-4--7--------9--------|
A|--2-4--4-4--4-4--4-4--4-4--4-4-4--7--------9--------|
E|--0-2--0-2--0-2--0-2--0-2--0-2-0--5--------7--------|

E|-----------------------------------------------------|
B|-----------------------------------------------------|
G|--------------------------------6--------8-----------|
D|--11\-4--2-6\--6\--4--2--7--4-2-7--------9-----------|
A|--11\-4--2-6\--6\--4--2--7--4-2-7--------9-----------|
E|--9\--2--0-4\--4\--2--0--5--2-0-5--------7-----------|

E|-----------------------------------------------------|
B|------------------------x--x-x-----------------------|
G|------------------------x--x-x----6--------8---------|
D|--7\-4--2-6\--6\--4--2--x--x-x2---7--------9---------|
A|--7\-4--2-6\--6\--4--2--x--x-x2---7--------9---------|
E|--5\-2--0-4\--4\--2--0--x--x-x0---5--------7---------|

Alt. Chorus                                          build
E|-------------------------|   clean              |-----------------|
B|-------------------------|  14       14         |-----------------|
G|------------1------6-----|     14       14      |--1-------8------|
D|--4---------2------7-----|        16       16   |--2-------9------| gap
A|--4---------2------7-----|                      |--2-------9------|
E|--2---------0------5-----|                      |--0-------7------|

E|-------------0-----0------|    |--0-------0-------|
B|-------------0-----0------|    |--0-------0-------|
G|--6----------9-----8------|x3  |--6-------8-------|
D|--7----------x-----x------|    |--7-------9-------|
A|--7----------7-----6------|    |--7-------9-------|
E|--5----------9-----7------|    |--5-------7-------|

Outro
E|-------------------------------------------------------------------|
B|-------------------------------------------------------------------|
G|---------------------------------2----------------------------2----|
D|-2-4--4-4--4-4--4-4--4-4--4-4-4-----4-4--4-4--4-4--4-4-4--4--------|
A|-2-4--4-4--4-4--4-4--4-4--4-4-4-----4-4--4-4--4-4--4-4-4--4--------|
E|-0-2--0-2--0-2--0-2--0-2--0-2-0-----0-2--0-2--0-2--0-2-0--0--------|

E|-----------------------------------------------------------|
B|-----------------------------------------------------------|
G|-----------------------------------------------------------|
D|-4-4--4-4--4-4--4-4--4-4-4---7--2-4---7--2-4----9-9-8-8-8--|
A|-4-4--4-4--4-4--4-4--4-4-4---7--2-4---7--2-4----7-7-6-6-6--|
E|-0-2--0-2--0-2--0-2--0-2-0---5--0-2---5--0-2---------------|

and that's it, hopefully it all makes sense

Key:
t = Tapped
p = Pull off
h = Hammer on
b = Bend
Tap to rate this tab
# A B C D E F G H I J K L M N O P Q R S T U V W X Y Z