Song name
# A B C D E F G H I J K L M N O P Q R S T U V W X Y Z

Arcane Roots - Over And Over tab

E|--------|
B|--12----|
G|--12----|
D|--9-----|
A|--------|
E|--------|

Intro
E|-----------------------------------------------------|
B|-----------------------------------------------------|
G|-----------------------------------------------------|
D|-----------------------------------------------------|
A|-----------------------------------------------------|
E|-12-0-0-12-0-0-12-0-0-12-0-0-12-0-0-12-0-12-0-12-0-0-|

E|---------------------------------|
B|---------------------------------|
G|---------------------------------|
D|---------------------------------|
A|---------------------------------|
E|--12-12-12-11-11-11-11~11~11~11~-|

E|-----------------------------------------------------|
B|-----------------------------------------------------|
G|-----------------------------------------------------|
D|-----------------------------------------------------|
A|-----------------------------------------------------|
E|-12-0-0-12-0-0-12-0-0-12-0-0-12-0-0-12-0-13-0-11-0-0-|

E|------------------------------|
B|------------------------------|
G|------------------------------|
D|------------------------------|
A|------------------------------|
E|--11-11-11-0-11-11-11-0-11-0--|

Verse 1 First Half       
E|-(0)--------------------------------------(0)-------|
B|--12-----------12--------12--------12h14--(0)-------|
G|--13-----------9---------11--------11------13-------|
D|--x------------11--------13----------------14-------|
A|--11-----------12--------14----------------14-------|
E|--0----------------------------------------12-------|

E|-------------------------------------------|
B|---------------12--------10-----9----(7)---|
G|---------------9---------8------8----------|
D|---------------11--------9-----------------|
A|---------------12--------------------------|
E|-------------------------------------------|

Verse 1 Second Half
E|--------------------|     |--------------------|  
B|--------------------|     |-----------0-12h14--|  
G|--13---------13h16--|x4   |--9---11h13---------|x2
D|--x---14h16---------|     |--11----------------|  
A|--14-------14-------|     |--12----------------|  
E|--0-----------------|     |--------------------| 

E|--------------------------------------|    |--------------------|
B|-----------0-12h14-------9h10p9-------|    |--------------------|
G|--11--11h13----------9----------11p9--|    |--13---------13h16--|x2
D|--11-----------------11---------------|    |--x---14h16---------| 
A|--9------------------12---------------|    |--14-------14-------|
E|--------------------------------------|    |--0-----------------|

E|--------------------|     |--------------------|  
B|--------------------|     |-----------0-12h14--|  
G|--13---------13h16--|x2   |--9---11h13---------|x2
D|--x---14h16---------|     |--11----------------|  
A|--14-------14-------|     |--12----------------|  
E|--0-----------------|     |--------------------| 

E|-------------------------------------------|
B|-------------------------------------------|
G|--11--13h14--11----11-----14-14-14-14-14---|
D|--13-------14--13--13-----13-13-13-13-13---|
A|--14---------------14-----14-14-14-14-14---|
E|-------------------------------------------|

1st Chorus (strumming)
E|--0-------------0----------0---------|
B|--0-------------5---4------0---------|
G|--13------------4----------8---------|
D|--14------------6----------9---------|
A|--14------------6----------9---------|x2
E|--0-------------4----------7---------|

E|--0-------------0----------0---------0-----------0-------------------|
B|--0-------------0----------0---------0-----------0-------------------|
G|--6-------------13---------8---------6-----------13------------------|
D|--7-------------14---------9---------7-----------14--------4---6-----|
A|--7-------------14---------9---------7-----------14--------4---6-----|
E|--5-------------0----------7---------5-----------0---------2---4-----|

Break
E|------------------------------------------------------------------------|
B|------------------------------------------------------------------------|
G|-----21---20----16-18---13----16--11----13/14--14-16-14-13---13---------|x2
D|-----x----x-----x--x----x-----x---x-----x------x--x--x--x----x----------|
A|-----19---18----14-16---11----14--9-----11/12--12-14-12-11---11---------|
E|-0-0-------------------------------------------------------------2h4~---|

E|--0------------------------------------------------|
B|--0------------------------------------------------|
G|--6-------------------------------6/8-8-8-8/9-9-9--|
D|--7-------------------------------x-x-x-x-x-x-x-x--|
A|--7-------------------------------4/6-6-6-6/7-7-7--|
E|--5------------------------------------------------|

E|------------------------------------------------------------------------|
B|------------------------------------------------------------------------|
G|-----21---20----16-18---13----16--11----13/14--14-16-14-13---13---------|
D|-----x----x-----x--x----x-----x---x-----x------x--x--x--x----x----------|
A|-----19---18----14-16---11----14--9-----11/12--12-14-12-11---11---------|
E|-0-0-------------------------------------------------------------2h4~---|

E|--0-----------------------0----------------0--------0--------|
B|--0-----------------------0----------------0--------0--------|
G|--6-------------------4---6------------4---6--------8--------|
D|--7-------------------6---7------------6---7--------9--------|
A|--7-------------------6---7------------6---7--------9--------|
E|--5-------------------4---5------------4---5--------7--------|

2nd Chorus
E|--0-------------0----------0---------|
B|--0-------------5---4------0---------|
G|--13------------4----------8---------|
D|--14------------6----------9---------|
A|--14------------6----------9---------|x2
E|--0-------------4----------7---------|

E|--0-------------0----------0---------0-----------0-------------------|
B|--0-------------0----------0---------0-----------0-------------------|
G|--6-------------13---------8---------6-----------13-------12---------|
D|--7-------------14---------9---------7-----------14-------13---------|
A|--7-------------14---------9---------7-----------14-------14---------|
E|--5-------------0----------7---------5-----------0-------------------|

Quiet Bit
E|------------------------------------------------------|
B|--17-----------17------------17-----------16----------|
G|--13-----------14------------13-----------x-----------|
D|--x------------14------------x------------13~---------|
A|--14-----------0-------------14-----------14~---------|
E|--0--------------------------0------------------------|

Driving Bit
E|----------------------------------------------------------|
B|----------------------------------------------------------|
G|--9-------6------9------8------9------6------9------3-----|
D|--11------7------9------9------11-----7------9------4-----|
A|--11------7------7------9------11-----7------7------4-----|
E|--9-------5------0------7------9------5------0------2-----|

E|------------------------------------------------------------------------|
B|------------------------------------------------------------------------|
G|-6-6-6-6-6-6-6-6-12-12-12-12-11-11-11-11-----------------------9-9-9-9--|
D|-x-x-x-x-x-x-x-x-x--x--x--x--x--x--x--x--8-8-8-8-8-8-8-8-4-4-4-x-x-x-x--|
A|-4-4-4-4-4-4-4-4-10-10-10-10-9--9--9--9--x-x-x-x-x-x-x-x-x-x-x-7-7-7-7--|
E|-----------------------------------------6-6-6-6-6-6-6-6-2-2-2----------|

E|--------------------------------------------------------------|
B|----------------------------------0---0---0-------------------|
G|-6-6-6-6-6-6-6-6-6-6-6-6-6-6-6-6--13--13--13---11-11-11-11----|
D|-x-x-x-x-x-x-x-x-x-x-x-x-x-x-x-x--14--14--14---13-13-13-13----|
A|-4-4-4-4-4-4-4-4-4-4-4-4-4-4-4-4--14--14--14---14-14-14-14----|
E|-----------------5-5-5-5-5-5-5-5--0---0---0-------------------|

Repeat 2nd Chorus

Outro (same as the first half of the chorus)
E|--0-------------0----------0---------|
B|--0-------------0----------0---------|
G|--13------------4----------8---------|x4
D|--14------------6----------9---------|
A|--14------------6----------9---------|
E|--0-------------4----------7---------|

E|--0----------------|
B|--0----------------|
G|--13---------------|
D|--14---------------|
A|--14---------------|
E|--0----------------|



And that's it. If you do a cover of this on youtube please link to the tabs.
Hoping to put up a full band cover of this soon so will link to it here when its up. 
Tap to rate this tab
# A B C D E F G H I J K L M N O P Q R S T U V W X Y Z