Song name
# A B C D E F G H I J K L M N O P Q R S T U V W X Y Z

Arcane Roots - Hell High Water tab

Verse 1
E|----------------------------------|
B|-------0-----------0-------0------|
G|---0-------0---0-------0-------0--|x2
D|----------------------------------|
A|----------------------------------|
E|-3---3-------3---3-------3--------|

E|------------------------------------------------------------0------|
B|--------0-----------0-------0-----------0-----------0-----------0--|
G|----0-------0---0-------0-------0---0-------0---0-------0----------|
D|-------------------------------------------------------------------|
A|--3---3-------3---3-------3-------3---3-------3---3-------3--------|
E|-------------------------------------------------------------------|

E|----------------------------------|
B|-------3-----------3-------3------|
G|---0-------0---0-------0-------0--|x2
D|----------------------------------|
A|----------------------------------|
E|-3---3-------3---3-------3--------|

E|-------------------------------------------------------------------|
B|--------0-----------0-------0-----------0-----------0-------0------|
G|----0-------0---0-------0-------0---0-------0---0-------0-------0--|
D|-------------------------------------------------------------------|
A|--3---3-------3---3-------3-------3---3-------3---3-------3--------|
E|-------------------------------------------------------------------|

E|-------------------------------------------------------------------------|
B|-------8-----8-----12------12---12---10-----8-----8---8-8\7---7---7------|
G|-----0-----0-----0-------0----------------0-----0---------------0---0----|
D|---5-----7-----9------12------9----7----5-----7-----5---5\4-4-4---4---4--|
A|-------------------------------------------------------------------------|
E|-------------------------------------------------------------------------|

E|------3h5p3-------------------3h5p3------------------|
B|------------3-----------------------3----8-7-5-------|
G|--5-----------5----4-5-7--------------5--------7-5---|
D|--5--------------5-5-7-9---5-------------------------|
A|--3------------------------3-------------------------|
E|-----------------------------------------------------|

E|-------------------------------------------------------------------------|
B|-------8-----8-----12------12---12---10-----8-----8---8-8\7---7---7------|
G|-----0-----0-----0-------0----------------0-----0---------------0---0----|
D|---5-----7-----9------12------9----7----5-----7-----5---5\4-4-4---4---4--|
A|-------------------------------------------------------------------------|
E|-------------------------------------------------------------------------|

All top notes are tapped
E|----------------------------------------------------------------|
B|---19p12-19\17p12p10-15p10p8-13p8p5-15p5h8p5-15p8p5--12p5p1--12-|
G|----------------------------------------------------------------|
D|----------------------------------------------------------------|
A|----------------------------------------------------------------|
E|----------------------------------------------------------------|

E|----------------------------------|
B|-------0-----------0-------0------|
G|---0-------0---0-------0-------0--|x2
D|----------------------------------|
A|----------------------------------|
E|-3---3-------3---3-------3--------|

E|-------------------------------------------------------------------|
B|--------0-----------0-------3-----------3-----------3-------3------|
G|----0-------0---0-------0-------0---0-------0---0-------0-------0--|
D|-------------------------------------------------------------------|
A|--3---3-------3---3-------3-------3---3-------3---3-------3--------|
E|-------------------------------------------------------------------|

Pre Chorus
E|-------------------------------|
B|---8-------------8-------------|
G|---9-------------7-------------|
D|---9-------------9-------------|
A|---7-------------10------------|
E|-------------------------------|

E|---------------------------------------------|
B|---------8--8--8---------8--8--8------8--8---|
G|---------9--9--9---------9--9--9------9--9---|x2
D|---------10-10-10--------10-10-10-----10-10--|
A|---------------------------------------------|
E|--8-8-8------------8-8-8----------8-8--------|

E|-----------------------------------------------------------------------------|
B|---8------------8----------5---5--5-5--5--5-5--5-5-5-8--8--8-8--8--8-8--8-8--|
G|---9------------7----------6---6--6-6--6--6-6--6-6-6-6--6--6-6--6--6-6--6-6--|
D|---9------------9----------7---7--7-7--7--7-7--7-7-7-7--7--7-7--7--7-7--7-7--|
A|---7------------10-----------------------------------------------------------|
E|---------------------------5-------------------------------------------------|

Break
E|-------------------------------------------|
B|-------------------------------------------|
G|--------11-11-11-------11-11-11-----11-11--|x4
D|--------9--9--9--------9--9--9------9--9---|
A|--------10-10-10-------10-10-10-----10-10--|
E|--0-0-0----------0-0-0----------0-0--------|

listen to track for strumming pattern
E|--------------------------------------------------|
B|-------------------------------------8------------|
G|---9---------/11----------9----------9------------|
D|---x----------------------7----------7------------|
A|---7----------------------7----------7------------|
E|---8----------------------9----------9------------|

E|-------------------------------------------|
B|-------------------------------------------|
G|--------11-11-11-------11-11-11-----11-11--|x4
D|--------9--9--9--------9--9--9------9--9---|
A|--------10-10-10-------10-10-10-----10-10--|
E|--0-0-0----------0-0-0----------0-0--------|

Verse 2
E|---------------------------------------------------------|
B|---8--8-7--7-3--3-0--0---0-0-8--8-7--7-3--3-0--0---0-0---|
G|---------------------------------------------------------|x2
D|---------------------------------------------------------|
A|---------------------------------------------------------|
E|---------------------------------------------------------|

E|---------------------------------------------------------|
B|---5--5-3--3-0--0------------5--5-3--3-0--0--------------|
G|------------------0--0---0-0----------------0--0---0-0---|x2
D|---------------------------------------------------------|
A|---------------------------------------------------------|
E|---------------------------------------------------------|

E|---------------------------------------------------------|
B|---8--8-7--7-3--3-0--0---0-0-8--8-7--7-3--3-0--0---0-0---|
G|---------------------------------------------------------|x2
D|---------------------------------------------------------|
A|---------------------------------------------------------|
E|---------------------------------------------------------|

E|--------------------------------------------|
B|---1-------------------13-------------------|
G|---0-------------------12-------------------|
D|---0-------------------12-------------------|
A|--------------------------------------------|
E|--------------------------------------------|

Chorus (Driving)
E|----0--------------------------------------------------------------|
B|----0---------------7-------------5--------------8---------5---8---|
G|----9---------------7-------------6--------------6---------6---6---|x2
D|----9---------------7-------------7--------------7---------7---7---|
A|----7---------------5-------------0--------------0---------0---0---|
E|----0--------------------------------------------------------------|

E|--------------------------------------------------|
B|-------------------------------------8------------|
G|---9---------/11----------9----------9------------|
D|---x----------------------7----------7------------|
A|---7----------------------7----------7------------|
E|---8----------------------9----------9------------|

Break
E|-------------------------------------------|
B|-------------------------------------------|
G|--------11-11-11-------11-11-11-----11-11--|x4
D|--------9--9--9--------9--9--9------9--9---|
A|--------10-10-10-------10-10-10-----10-10--|
E|--0-0-0----------0-0-0----------0-0--------|

E|-------------------------------------------|
B|-------------------------------------------|
G|---------11-11----11-11---11-11--11--11----|x2
D|---------9--9-----9--9----9--9---9---9-----|
A|---------10-10----10-10---10-10--10--10----|
E|--0---0---------0-------0------------------|
PM........        .       .

E|-------------------------------------------------|
B|-------------------------------------------------|
G|--11b(12b11)---------11b(12b11)--------11-11-----|x3
D|--9------------------9-----------------9--9------|
A|--10-----------------10----------------10-10-----|
E|--------------0---0-------------0---0---------0--|

E|-------------------------------------------------|
B|-------------------------------------------------|
G|--11b(12b11)---------11b(12b11)--------7-7-9-9-9-|
D|--9------------------9-----------------x-x-x-x-x-|
A|--10-----------------10----------------5-5-7-7-7-|
E|--------------0---0-------------0---0------------|

Chorus (Driving)
E|----0--------------------------------------------------------------|
B|----0---------------7-------------5--------------8---------5---8---|
G|----9---------------7-------------6--------------6---------6---6---|x2
D|----9---------------7-------------7--------------7---------7---7---|
A|----7---------------5-------------0--------------0---------0---0---|
E|----0--------------------------------------------------------------|

E|-------------------------------------------------------------------------------------------|
B|--------------8---8---8--7---7---7--7---7---7--5---5---5--5---5---5--5h8-8---8--8---5---8--|
G|--------------9---9---9--7---7---7--7---7---7--6---6---6--6---6---6--6---6---6--6---6---6--|x2
D|---9---9---9--9---9---9-------------7---7---7--7---7---7--7---7---7--7---7---7--7---7---7--|
A|---7---7---7--7---7---7--5---5---5--5---5---5--0---0---0--0---0---0--0---0---0--0---0---0--|
E|---0---0---0--0---0---0--------------------------------------------------------------------|

Outro
E|----------------------------------------------------------------------------------------------|
B|--------------8---8---8--7---7---7--7---7---7--5---5---7/9-9---9---9--9---9---9/11-11--11--11-|
G|--------------9---9---9--7---7---7--7---7---7--6---6------------------------------------------|
D|---9---9---9--9---9---9-------------7---7---7--7---7---5/7-7---7---7--7---7---7/9--9---9---9--|
A|---7---7---7--7---7---7--5---5---5--5---5---5--0---0---0---0---0---0--0---0---0----0---0---0--|
E|---0---0---0--0---0---0-----------------------------------------------------------------------|

E|---------------------------------------------------------------------|
B|--------------8---8---8--7---7---7--7---7---7--5---------------------|
G|--------------9---9---9--7---7---7--7---7---7--6---------------------|
D|---9---9---9--9---9---9-------------7---7---7--7---------------------|
A|---7---7---7--7---7---7--5---5---5--5---5---5--0---------------------|
E|---0---0---0--0---0---0----------------------------------------------|


I've done a cover of this tab if you are interested: https://www.youtube.com/watch?v=ZnWv_UWpQ5g

Please comment any corrections you have as this definitely needs some improvements in
places
to get it
to sound closer to the actual record.

Thanks.


and to avoid any complaints here's the sustain-y reverb-y bit on the end
E|---------------------------------------------------------|
B|--------8-------7-------3-------2------------5-----------|
G|---------------------------------------------------------|
D|---------------------------------------------------------|
A|---------------------------------------------------------|
E|--0------------------------------------------------------|
Tap to rate this tab
 
# A B C D E F G H I J K L M N O P Q R S T U V W X Y Z