Song name
# A B C D E F G H I J K L M N O P Q R S T U V W X Y Z

Arcane Roots - Nylon tab

This song is from the Arcane Roots EP (which is nearly impossible to find online these days)

Intro (Clean)
E|-(0)--------(0)---------0----------(0)------------------|
B|--1----------0----------3-----------1---------x-x-x-x-x-|
G|--2----------0----------1-----------2---------x-x-x-x-x-|
D|--2----------2----------2-----------3---------x-x-x-x-x-|
A|--0----------3----------2-----------3---------x-x-x-x-x-|
E|-----------------------(0)------------------------------|

(Distorted)
E|--0---0-0------------------------------0---0-0-------------------------------------|
B|--1---1-1------------0---0-0-----------3---3-3------------1---1-1----x-x-x-x-x-x-x-|
G|--2---2-2------------0---0-0-----------1---1-1------------2---2-2----x-x-x-x-x-x-x-|
D|--2---2-2------------2---2-2-----------2---2-2------------3---3-3----x-x-x-x-x-x-x-|
A|--0---0-0------------3---3-3-----------2---2-2------------3---3-3----x-x-x-x-x-x-x-|
E|---------------------------------------0---0-0------------1---1-1------------------|

Verse
E|--0---0-0-------------------------------------------------------|
B|--1---1-1--x-x-x-x-x-x-x-x-x-x-x-0---0-0--x-x-x-x-x-x-x-x-x-x-x-|  _
G|--2---2-2--x-x-x-x-x-x-x-x-x-x-x-0---0-0--x-x-x-x-x-x-x-x-x-x-x-|   | 
D|--2---2-2--x-x-x-x-x-x-x-x-x-x-x-2---2-2--x-x-x-x-x-x-x-x-x-x-x-|   |
A|--0---0-0--x-x-x-x-x-x-x-x-x-x-x-3---3-3--x-x-x-x-x-x-x-x-x-x-x-|   | 
E|----------------------------------------------------------------|   | 
                                                                      | Repeat 
E|--0---0-0-------------------------------------------------------|   |
B|--3---3-3--x-x-x-x-x-x-x-x-x-x-x-1---1-1--x-x-x-x-x-1-x-x-3-3-x-|   |
G|--1---1-1--x-x-x-x-x-x-x-x-x-x-x-2---2-2--x-x-x-x-x-2-x-x-2-2-x-|   | 
D|--2---2-2--x-x-x-x-x-x-x-x-x-x-x-3---3-3--x-x-x-x-x-3-x-x-x-x-x-|  _|
A|--2---2-2--x-x-x-x-x-x-x-x-x-x-x-3---3-3--x-x-x-x-x-3-x-x-3-3-x-|
E|--0---0-0------------------------1---1-1------------------------|

E|--0---0-0-----------------------(0)(0)(0)---------------|
B|--1---1-1--x-x-x-x-x-x-x-x-x-x-x-3--3--3----------x-x-x-|
G|--2---2-2--x-x-x-x-x-x-x-x-x-x-x-4--4--4----------x-x-x-| 
D|--2---2-2--x-x-x-x-x-x-x-x-x-x-x-2--2--2----------x-x-x-|
A|--0---0-0--x-x-x-x-x-x-x-x-x-x-x------------------x-x-x-| 
E|--------------------------------------------------------|  

Pre Chorus
E|-----------------------------------------------------|
B|-----------------------------------------------------|
G|--5--5----5-----5----8-8---5--5----5----4-4-4-4-4----|
D|--7--7----7-----7----7-7---7--7----7----0-0-0-0-0----|
A|-------0-----0----0-------------0----0--x-x-x-x-x----|
E|----------------------------------------3-3-3-3-3----|

Chorus (Driving)
E|---------------------------------------------------------------------|
B|---------------------------------------------------------------------|
G|--5-------------------------8-------(3)------------------------------|x2
D|--7-------------------------x--------4-------------------------------|
A|--7-------------------------6--------4-------------------------------|
E|--5-------------------------5--------2-------------------------------|

Post Chorus
E|-------------------------------------------------------|
B|-------------------------------------------------------|
G|--5--5----5-----5----8-8---5---3-3--3-3--3-3--3-3--3-3-|
D|--7--7----7-----7----7-7---7---4-4--4-4--4-4--4-4--4-4-|
A|-------0-----0----0------------------------------------|
E|-------------------------------------------------------|

E|-------------------------------------------------------------|
B|-------------------------------------------------------------|
G|--5--5----5-----5----8-8---5-------5------5--------5-----5---|
D|--7--7----7-----7----7-7---7---4-4----4-4----4-4-4---4-4-----|
A|-------0-----0----0------------4-4----4-4----4-4-4---4-4-----|
E|-------------------------------2-2----2-2----2-2-2---2-2-----|

Play Verse & Pre Chorus

Second Chorus is just drums 

with this lead into the middle section
E|-------------------------|
B|-------------------------|
G|---------------------5~--|
D|-4-4-----4-4-----4-4-----|
A|-4-4-----4-4-----4-4-----|
E|-2-2-----2-2-----2-2-----|

Middle Section
E|------------------------------------------------------------------|
B|------------------------------------------------------------------|
G|--------5-4-0-------5-4-0-------5-4-0-----4p0-2/4---------5---5~--|
D|--4-2---------4-2---------4-2---------4p0-------------------------|
A|------3-----------3-----------3-------------------4-4-4-4---------|
E|--------------------------------------------------2-2-2-2---------|

E|------------------------------------------------------------------|
B|------------------------------------------------------------------|
G|--------5-4-0-------5-4-0-------5-4-0-----4p0-2/4--------5--5--5--|
D|--4-2---------4-2---------4-2---------4p0-------------------------|
A|------3-----------3-----------3-------------------4-4-4-4---------|
E|--------------------------------------------------2-2-2-2---------|

E|--------------------------------------------------|
B|--------------------------------------------------|
G|--------------------------------5----------5----5-|
D|--------------------------------------------------|
A|------------------------4--4--4----4--4--4----4---|
E|--2p0-2p0-5--2p0-2p0-5--2--2--2----2--2--2----2---|

E|----------------------------------------------------------|
B|----------------------------------------------------------|
G|--------------------------------5----------------------5--|
D|----------------------------------------------------------|
A|------------------------4--4--4----4--4--4--4--4--4--4----|
E|--2p0-2p0-5--2p0-2p0-5--2--2--2----2--2--2--2--2--2--2----|

E|---------------------------------------------------------------|
B|---------------------------------------------------------------|
G|--------------------------------5----------5----------------5--|
D|---------------------------------------------------------------|
A|------------------------4--4--4----4--4--4----4--4--4--4--4----|
E|--2p0-2p0-5--2p0-2p0-5--2--2--2----2--2--2----2--2--2--2--2----|

E|-------------------------------------------|
B|-------------------------------------------|
G|--------------------------------5-------5--|
D|-------------------------------------------|
A|------------------------4--4--4----4--4----|
E|--2p0-2p0-5--2p0-2p0-5--2--2--2----2--2----|

Outro
E|----------------------------|
B|----------------------------|
G|--5---5---5----5---5---5----|x6
D|--4---4---4----4---4---4----|
A|--x---x---0----x---x---0----|
E|--2p0-2p0------2p0-2p0------|

Tap to rate this tab
 
# A B C D E F G H I J K L M N O P Q R S T U V W X Y Z