Song name
# A B C D E F G H I J K L M N O P Q R S T U V W X Y Z

Arcane Roots - Habibty tab

E|----------------------------0-------------|
B|---4------------4-------------------------|
G|---3h4-3-1------4---4----3-------1--------|
D|-----------4-2-----------4-------2--------|
A|---2------------2-------------------------|
E|-------------------------2-------0--------|

E|---------------------------6---7-----7------------|
B|---4------------4---------(4)-------(9)-----------|
G|---3h4-3-1------4---4---------------------9-------|
D|-----------4-2-------------4----------------------|
A|---2------------2--------------------7------------|
E|--------------------------------------------------|

E|-------9/11\9-----------0---------------2------4-------------|
B|------------9----------(0)-------------0------(4)-----4------|
G|------------------8-------------------3----------------------|
D|------------------9----------------4-----------2-------------|
A|-------------------------------------------------------------|
E|---0--------------7------------------------------------------|

E|-------------------------------------------0-------------------|
B|----4---------------4-------4--------------0-------------------|
G|---(4)------4-------4----------------3------------1------1-----|
D|-------------------------------------4------------2------------|
A|--------------------2------------------------------------------|
E|----4--------------------------------2------------0------------|

E|------------------------------------6---------6---------6---------6-----7----------|
B|---5-----5-------4-----------------------5---------5---------5----5-----5----------|
G|---6-------------4-----------------------------------------------------------------|
D|-----------------------6---(0)------4----------------------------------------------|
A|---4-------------2-----------------------------------------------------------------|
E|-----------------------------------------------------------------------------------|

Tap to rate this tab
 
# A B C D E F G H I J K L M N O P Q R S T U V W X Y Z