Song name
# A B C D E F G H I J K L M N O P Q R S T U V W X Y Z

Arcane Roots - Ii Home tab

There are many layers in this song so these are just some of the main ones. 
Please comment with any additional ones.

Main Clean Part (repeat as necessary)
E|----------------------------------------------------------0-1------------------------------|
B|--6-----------5-6------5-------------------3--------3--------------------------------------|
G|----------7--------------5--5---3--2--0-2----2-0-2-----2------------7h9-----5------(5)-----|
D|------7--------------7------5h7-5--3--2-3-----------0-------------7-7---10--5h7--5-(7)-----|
A|--5----------------8--------------------------------------------8-------------------8--7---|
E|-------------------------------------------------------------------------------------------|

Fade In Notes (repeat as necessary)
E|------------------------------------------|------------------------------------------|
B|------------------------------------------|------------------------------------------|
G|----7--------10---------------------------|----7--------10---------------------------|
D|----7--------12--------7--------8---------|----7--------12--------7--------8----7----|
A|-----------------------8--------10--------|-----------------------8--------10--------|
E|------------------------------------------|------------------------------------------|

Bass (repeat as necessary)
G|--------------------------------------------|
D|--0-0---2--3--------2--3--------------------|
A|--------------1-1------------------3-1-0----|
E|--------------------------1-1------------3--|

Lead (repeat as necessary)
E|----------------------------------------------------------------------------------|
B|----------------------------------------------------------------------------------|
G|---------------12-14-----------14b15b14----------14b15b14----12-12-12-12-14-12----|
D|--12--12-12-15-----------12-12-------------10-10-------------------------------15-|
A|----------------------------------------------------------------------------------|
E|----------------------------------------------------------------------------------|

E|--------------------------------------------------------------------------------|
B|----------------------------------------------------------------18----15--------|
G|---------------12-14-----------14b15b14----------14b15b14----14----14----14~----|
D|--12--12-12-15-----------12-12-------------10-10--------------------------------|
A|--------------------------------------------------------------------------------|
E|--------------------------------------------------------------------------------|

Rhythm Guitar (repeat as necessary)
E|--1-----------------------------------|
B|--3--------3-----------------0--------|
G|--2--------3--------2--------0--------|
D|--0--------3--------3--------0--------|
A|-----------1--------3--------X--------|
E|--------------------1--------3--------|



Hopefully that helps. 
I've done a cover of this tab if you are interested: 
https://www.youtube.com/watch?v=YGF4cNci034&feature=youtu.be

Tap to rate this tab
# A B C D E F G H I J K L M N O P Q R S T U V W X Y Z