Song name
# A B C D E F G H I J K L M N O P Q R S T U V W X Y Z

Arcane Roots - Energy Is Never Lost Just Redirected tab

Soft Intro (pedal on Bb)
E|----------------------------------------------------------|     |--------|
B|------------------------------6---------------------------|     |--------|Swell into next section
G|-(6)-----------8-----p6-------------------3------5--------|x3   |---6----|
D|---------------8-----p7-----------------------------------|     |---8----|
A|------------------------------4---------------------------|     |---8----|
E|--6---------------------------------------2------4--------|     |---6----|


Heavy Intro
E|-------------------------------------------------------------------------------------------|
B|-------------------------------------------------------------------------------------------|
G|-------------------------------------------------------------------------------------------|
D|--------------------------------4--------------4--------------4----------------------------|
A|--1----------------------------------------------2---1---------------------------2---1-----|
E|-----0--1--2--7-4-6-7-4-6--3--2----0--1--2-0-1-----4---3--0-1---0--6--0--1--2~-----4----3--|

E|--------------------------------------------------------------------------------------------------|
B|--------------------------------------------------------------------------------------------------|
G|--------------------------------------------------------------------------------------------------|
D|----4--------------4--------------------------------------------------------------4------------4--|
A|---------------------2---1-----------------------------------------2-----1-----------------------2|
E|-2-----0--1--2-0-1-----4---3--0-1-2-6\--0--1--2--0----1--2---1--2-----4-----3--2-----0-1-2-0-1----|

Pre Verse
E|----------------------------------------------------------------|
B|----------------------------------------------------------------|
G|----------------------------------------------------------------|
D|---8---8--8--8--8---8--8--8--8----8-----8---8--8--8--8-\--/-----|
A|---7---7--7--7--7---7--7--7--7----7-----7---7--7--7--7-\--/-----|
E|---6---0--0--0--6---0--0--0--5/6-06\5-0-6---0--0--0--6-\--/-----|

First Verse
E|----------------------------------------------------------------------------------------------|
B|----------------------------------------------------------------------------------------------|
G|---6------------6------------6-------6-------6------------6-----6------------6-------6--------|
D|---8------------8------------8-------8-------7------------7-----7------------7-------7--------|
A|---7------------7------------7-------7-------6------------6-6-6-6------------6-------6--------|
E|---6---0--0--0--6---0--0--0--6p0-0-0-6p0-0-0-5---0--0--0--5-5-5-5---0---0-0--5p0-0-0-5p0-0-0--|
        Pm------     Pm------                     Pm------           Pm------

E|---------------------------------------------------------------------------------------|
B|---------------------------------------------------------------------------------------|
G|---3------------3----------------------------6------------6-----6-----------6----------|
D|---4------------4------------4-------4-------7------------7-----7-----------7----------|
A|---4------------4------------4-------4-------7------------7-7-7-7-----------7----------|
E|---2---0--0--0--2---0--0--0--0h2---0-2-1-0---5---0--0--0--5-5-5-5---0--0-0--5----------|
        Pm------     Pm------                     Pm------           Pm------

E|----------------------------------------------------------------------------------------------|
B|----------------------------------------------------------------------------------------------|
G|---6------------6------------6------6--------6------------6-----6------------6-------6--------|
D|---8------------8------------8------8--------7------------7-----7------------7-------7--------|
A|---7------------7------------7------7--------6------------6-6-6-6------------6-------6--------|
E|---6---0--0--0--6---0--0--0--5/6--0-6\5-0----5---0--0--0--5-5-5-5---0---0-0--5p0-0-0-5p0-0-0--|
        Pm------     Pm------                     Pm------           Pm------

E|---------------------------------------------------------------------------------------|
B|---------------------------------------------------------------------------------------|
G|---3------------3----------------------------6------------6-----6-----------6----------|
D|---4------------4------------4-------4-------7------------7-----7-----------7----------|
A|---4------------4------------4-------4-------7------------7-7-7-7-----------7----------|
E|---2---0--0--0--2---0--0--0--0h2---0-2-1-0---5---0--0--0--5-5-5-5---0--0-0--5----------|
        Pm------     Pm------                     Pm------           Pm------

Chorus (Listen to track for strumming pattern)
E|---------------------------------------------------|
B|----------------------------6----------------------|
G|---6-------------6----------6--------3------5------|x2
D|---x-------------x----------6--------4------6------|
A|---4-------------4----------4--------4------6------|
E|---6-------------5-------------------2------4------|

Pre Verse (without the slide at the end

Second Verse 
E|----------------------------------------------------------------------------------------------|
B|----------------------------------------------------------------------------------------------|
G|---6------------6------------6-------6-------6------------6-----6------------6-------6--------|
D|---8------------8------------8-------8-------7------------7-----7------------7-------7--------|
A|---7------------7------------7-------7-------6------------6-6-6-6------------6-------6--------|
E|---6---0--0--0--6---0--0--0--6p0-0-0-6p0-0-0-5---0--0--0--5-5-5-5---0---0-0--5p0-0-0-5p0-0-0--|
        Pm------     Pm------                     Pm------           Pm------

E|---------------------------------------------------------------------------------------|
B|---------------------------------------------------------------------------------------|
G|---3------------3----------------------------6------------6-----6-----------6----------|
D|---4------------4------------4-------4-------7------------7-----7-----------7----------|
A|---4------------4------------4-------4-------7------------7-7-7-7-----------7----------|
E|---2---0--0--0--2---0--0--0--0h2---0-2-1-0---5---0--0--0--5-5-5-5---0--0-0--5----------|
        Pm------     Pm------                     Pm------           Pm------

(Im not sure about the higher notes in this, so these are just guesses)
E|--------------6p0----------------6p0---------------------------|
B|----------5p0----------------5p0-----6--6--6--6----------------|
G|-------------------------------------6--6--6--6---------9------|
D|--8--8--8-----------8--8--8--8-------6--6--6--6---8--8--8--8---|
A|--7--7--7-----------7--7--7--7-------4--4--4--4---7--7--7--7---|
E|--6--0--0-----------6--0--0--0--------------------0--0--0--0---|

E|------------6h7p6p0---------------------------------------|
B|--------5h6----------------------6--6--6--6---------------|
G|---------------------------------6--6--6--6---------------|
D|--8--8--8-----------8--8--8--8---6--6--6--6---5--5--5-5---|
A|--7--7--7-----------7--7--7--7---4--4--4--4---5--5--5-5---|
E|--6--0--0-----------6--0--0--0----------------3--3--3-3-0-|

E|--------------6p0----------------6p0---------------------------|
B|----------5p0----------------5p0-----6--6--6--6----------------|
G|-------------------------------------6--6--6--6---------9------|
D|--8--8--8-----------8--8--8--8-------6--6--6--6------8--8--8---|
A|--7--7--7-----------7--7--7--7-------4--4--4--4---7--7-(7)-7---|
E|--6--0--0-----------6--0--0--0--------------------6------------|

E|------------6h7p6p0---------------------------------------|
B|--------5h6----------------------6--6--6--6---------------|
G|---------------------------------6--6--6--6---3--3--5-5-5-|
D|--8--8--8-----------8--8--8--8---6--6--6--6---4--4--6-6-6-|
A|--7--7--7-----------7--7--7--7---4--4--4--4---4--4--6-6-6-|
E|--6--0--0-----------6--0--0--0----------------2--2--4-4-4-|

Chorus
E|----------------------------------------------------------------------|
B|----------------------------6-----------------------------------------|
G|---6-------------6----------6--------3------5---------x-x-x-x-x-x-x-x-|
D|---x-------------x----------6--------4------6---------x-x-x-x-x-x-x-x-|
A|---4-------------4----------4--------4------6---------x-x-x-x-x-x-x-x-|
E|---6-------------5-------------------2------4---------x-x-x-x-x-x-x-x-|

E|----------------------------------------------------------------------------|
B|----------------------------6-----------------------------------------------|
G|---6-------------6----------6--------3------5---------6----5------5---3-----|
D|---x-------------x----------6--------4------6---------8----7------6---4-----|
A|---4-------------4----------4--------4------6---------8----7------6---4-----|
E|---6-------------5-------------------2------4---------6----5------4---2-----|

Middle Section
E|------------------------------------------------------------------------------|
B|------------------------------------------------------------------------------|
G|-----------------------------11-9---------------------------------------------|
D|----------------------------9-------------------------------------------------|
A|--------------------------10--------------------------------------------------|
E|--6--0--0--0--0--0--0--0-----------5-6--0--0--0--0--0--0--0--6--2--3---0---0--|

*Natural Harmonic
E|--------------------------------------------------------------------|
B|--------------------------------------------------------------------|
G|-5*nh---------------------------------------------------------------|
D|--------------------------------------------------------------------|
A|--------------------------------------------------------------------|
E|--------0--0--0--13p10p0-9---12---13---0-0--0--0--0--0-8-8-11-------|

E|----------------------------------------------------------------------------------------|
B|----------------------------------------------------------------------------------------|
G|----------------------------------------------------------------------------------------|
D|----------------------------------------------------------------------------------------|
A|----------------------------------------------------------------------------------------|
E|--0--0-0---0--0--0---0-3~-02~--0--0-0---0--0--0---0-6\-02~--6\-02~-----0--0--0-3~-02~---|

#pinched harmonic
E|----------------------------------|
B|----------------------------------|
G|--------------------------3#~-----|
D|----------------------------------|
A|-----------------------1----------|
E|--0--0-0---0--0--0---0------------|

E|---------------------------------------------------------------|
B|---------------------------------------------------------------|
G|---------------------------------------------------------------|
D|---------------------------------------------------------------|
A|---------------------------------------------------------------|
E|--6--3--3-5--2--2-6--3--3-5--2--2--6--3--5--2--6--3--5--2------|

Last Chorus/Outro (Listen to track for strumming pattern)
E|--------------------------------------------------------------------------------------|
B|----------------------------------------------------------6---------------------------|
G|---10----------------------11--------------11-------------6-----------3-------5-------|
D|---11----------------------13-------------p11-------------6-----------4-------6-------|
A|---------------------------12--------------12-------------4-----------4-------6-------|
E|----------------------------------------------------------------------2-------4-------|

E|--------------------------------------------------------------------------------------|
B|----------------------------6---------------------------------------------------------|
G|---6-------------6----------6--------3------5---------6----5------5---3---------------|
D|---x-------------x----------6--------4------6---------8----7------6---4---------------|
A|---4-------------4----------4--------4------6---------8----7------6---4---------------|
E|---6-------------5-------------------2------4---------6----5------4---2---------------|



That's a rough idea of how it goes and hopefully the tabs timing makes sense. 
Tap to rate this tab
 
# A B C D E F G H I J K L M N O P Q R S T U V W X Y Z