Guitaretab - guitar tabs
Song name
# A B C D E F G H I J K L M N O P Q R S T U V W X Y Z

Arch Enemy - Silent Wars tab

#----------------------------------PLEASE NOTE---------------------------------#
#This file is the author's own work and represents their interpretation of the #
#song. You may only use this file for private study, scholarship, or research. #
#------------------------------------------------------------------------------#




Transcribed by Unregistered
	



Gtr I (C F Bb Eb G C) - 'Rhythm 1'
Gtr II (C F Bb Eb G C) - 'Rhythm 2'
Gtr III (C F Bb Eb G C) - 'Lead'

 Tear down the Walls Intro
  Q=150
 4/4
               Gtrs I, II
               PM------------------------------
  Wx2          E E E E Q  E E   E E Q  E E Q
|------------|----------------|---------------|
|------------|----------------|---------------|
|------------|----------------|---------------|
|------------|----------------|---------------|
|------------|-2-2-2-2----2-2-|-2-2----2-2----|
|------------|-0-0-0-0----0-0-|-0-0----0-0----|


 -----------------------------|
  E E E E Q  E E   E E Q  E E Q
|----------------|----------------|
|----------------|----------------|
|----------------|----------------|
|----------------|----------------|
|-2-2-2-2----2-2-|-2-2----2-2-----|
|-0-0-0-0----0-0-|-0-0----0-0-----|


  PM-----------------------------------------------------------|
  E E E E Q  E E   E E Q  E E Q    E E E E Q  E E   E E Q  E E Q
|----------------|---------------|----------------|---------------|
|----------------|---------------|----------------|---------------|
|----------------|---------------|----------------|---------------|
|----------------|---------------|----------------|---------------|
|-2-2-2-2----2-2-|-2-2----2-2----|-2-2-2-2----2-2-|-2-2----2-2----|
|-0-0-0-0----0-0-|-0-0----0-0----|-0-0-0-0----0-0-|-0-0----0-0----|


  PM-----------------------------------------------------------|
  E E E E Q  E E   E E Q  E E Q    E E E E Q  E E   E E Q  E E Q
|----------------|---------------|----------------|---------------|
|----------------|---------------|----------------|---------------|
|----------------|---------------|----------------|---------------|
|----------------|---------------|----------------|---------------|
|-2-2-2-2----2-2-|-2-2----2-2----|-2-2-2-2----2-2-|-2-2----2-2----|
|-0-0-0-0----0-0-|-0-0----0-0----|-0-0-0-0----0-0-|-0-0----0-0----|


  PM-----------------------------------------------------------|
  E E E E Q  E E   E E Q  E E Q    E E E E Q  E E   E E Q  E E Q
|----------------|---------------|----------------|---------------|
|----------------|---------------|----------------|---------------|
|----------------|---------------|----------------|---------------|
|----------------|---------------|----------------|---------------|
|-2-2-2-2----2-2-|-2-2----2-2----|-2-2-2-2----2-2-|-2-2----2-2----|
|-0-0-0-0----0-0-|-0-0----0-0----|-0-0-0-0----0-0-|-0-0----0-0----|


  PM-------------------|
  E E E E Q  E E   E E H.        W
|----------------|-------------|------|
|----------------|-------------|------|
|----------------|-------------|------|
|----------------|-------------|------|
|-2-2-2-2----2-2-|-2-2---------|------|
|-0-0-0-0----0-0-|-0-0---------|------|


   Intro (Silent Wars)
    N.C.(Em)
   4/4
    Gtrs I, II
        PM--------|     PM--------|       PM--------|     PM|     PM|
    S S S S +S  S E S S S S +S  S E   S S S S +S  S E S S S S S S S S   4x
||----------------------------------|-----------------------------------||
||o---------------------------------|----------------------------------o||
||----------------------------------|-----------------------------------||
||----------------------------------|-----------------------------------||
||o-5h7-------------5h8-------------|-5h7-------------5h7-----5h8------o||
||------0-0-(0)-0-0-----0-0-(0)-0-0-|-----0-0-(0)-0-0-----0-0-----0-0---||


        PM--------|     PM--------|       PM--------|     PM|     PM|
    S S S S S S S S S S S S S S S S   S S S S S S S S S S S S S S S S   4x
||----------------------------------|-----------------------------------||
||o---------------------------------|----------------------------------o||
||----------------------------------|-----------------------------------||
||----------------------------------|-----------------------------------||
||o-5h7-------------5h8-------------|-5h7-------------5h7-----5h8------o||
||------0-0-0-0-0-0-----0-0-0-0-0-0-|-----0-0-0-0-0-0-----0-0-----0-0---||


  E5    Bb5   B5      C5    C#5 D5    E5    Bb5   B5      C5    C#5 D5
    PM|   PM|   PM--|   PM|   PM  PM    PM|   PM|   PM--|   PM|   PM  PM
  E E E E E E E E   E E E E E E E E   E E E E E E E E   E E E E E E E E
|-----------------|-----------------|-----------------|-----------------
|-----------------|-----------------|-----------------|-----------------
|-----------------|-----------------|-----------------|-----------------
|-9---------------|---5-----6---7---|-9---------------|---5-----6---7---
|-7-----8-----9---|---3-----4---5---|-7-----8-----9---|---3-----4---5---
|---0-0-6-0-0-7-0-|-0---0-0---0---0-|---0-0-6-0-0-7-0-|-0---0-0---0---0-


  E5    Bb5   Bb5     C5    C#5
  Gtr I
    PM|   PM|   PM--|   PM|   PM  PM
  E E E E E E E E   E E E E E E E E
|-----------------|-----------------|
|-----------------|-----------------|
|-----------------|-----------------|
|-9---------------|---5-----6---7---|
|-7-----8-----9---|---3-----4---5---|
|---0-0-6-0-0-7-0-|-0---0-0---0---0-|
|
| Gtr II
|   PM|   PM|   PM--|   PM|   PM  PM
| E E E E E E E E   E E E E E E E E
|-----------------|-----------------|
|-----------------|-----------------|
|-----------------|-----------------|
|-9---------------|---5-----6---7---|
|-7-----8-----9---|---3-----4---5---|
|---0-0-6-0-0-7-0-|-0---0-0---0---0-|


  E5    Bb5   B5      C5    Dm
    PM|   PM|   PM--|   PM|
  E E E E E E E E   E E E E  S  S  S  S  Q
|-----------------|---------17-13-------------|
|-----------------|---------------15----------|
|-----------------|------------------14-------|
|-9---------------|---5-----------------15----|
|-7-----8-----9---|---3-----------------------|
|---0-0-6-0-0-7-0-|-0---0-0-------------------|
|
|   PM|   PM|   PM--|   PM|
| E E E E E E E E   E E E E  S  S  S  S  Q
|-----------------|---------13-10-------------|
|-----------------|---------------10----------|
|-----------------|------------------10-------|
|-9---------------|---5-----------------12----|
|-7-----8-----9---|---3-----------------------|
|---0-0-6-0-0-7-0-|-0---0-0-------------------|


   Verse I
    N.C.(Em)
    Gtrs I, II
        PM--------|     PM--------|       PM--------|     PM|     PM|
    S S S S +S  S E S S S S +S  S E   S S S S +S  S E S S S S S S S S  4x
||----------------------------------|----------------------------------||
||o---------------------------------|---------------------------------o||
||----------------------------------|----------------------------------||
||----------------------------------|----------------------------------||
||o-5h7-------------5h8-------------|-5h7-------------5h7-----5h8-----o||
||------0-0-(0)-0-0-----0-0-(0)-0-0-|-----0-0-(0)-0-0-----0-0-----0-0--||


        PM--------|     PM--------|       PM--------|     PM|     PM|
    S S S S S S S S S S S S S S S S   S S S S S S S S S S S S S S S S   4x
||----------------------------------|-----------------------------------||
||o---------------------------------|----------------------------------o||
||----------------------------------|-----------------------------------||
||----------------------------------|-----------------------------------||
||o-5h7-------------5h8-------------|-5h7-------------5h7-----5h8------o||
||------0-0-0-0-0-0-----0-0-0-0-0-0-|-----0-0-0-0-0-0-----0-0-----0-0---||


 Pre Chorus
  E
  Q  Q  S S S S S S S S   E E E E S S S S S S S S
|-----------------------|-------------------------|
|-----------------------|-------------------------|
|-9--9------------------|-9-9-9-9-----------------|
|-8--8------------------|-8-8-8-8-----------------|
|-7--7------------------|-7-7-7-7-----------------|
|-------0-0-0-0-0-0-0-0-|---------0-0-0-0-0-0-0-0-|


  Q  Q  S S S S S S S S   E E E E H
|-----------------------|--------------|
|-----------------------|--------------|
|-9--9------------------|-9-9-9-9------|
|-8--8------------------|-8-8-8-8------|
|-7--7------------------|-7-7-7-7------|
|-------0-0-0-0-0-0-0-0-|--------------|


 Chorus I
  E5                      F5   Bb5    D5   F5
  W          +W           H    H      H     H
|----------|------------|-----------|------------|
|----------|------------|-----------|------------|
|----------|------------|-----------|------------|
|----------|------------|------3----|-7----10----|
|-2--------|-(2)--------|-3----1----|-5-----8----|
|-0--------|-(0)--------|-1---------|------------|


  E5                      F5   Bb5    D5   F5
  W          +W           H    H      H     H
|----------|------------|-----------|------------|
|----------|------------|-----------|------------|
|----------|------------|-----------|------------|
|-9--------|-(9)--------|------3----|-7----10----|
|-7--------|-(7)--------|-3----1----|-5-----8----|
|----------|------------|-1---------|------------|


   Verse II
    N.C.(Em)
        PM--------|     PM--------|       PM--------|     PM|     PM|
    S S S S +S  S E S S S S +S  S E   S S S S +S  S E S S S S S S S S  4x
||----------------------------------|----------------------------------||
||o---------------------------------|---------------------------------o||
||----------------------------------|----------------------------------||
||----------------------------------|----------------------------------||
||o-5h7-------------5h8-------------|-5h7-------------5h7-----5h8-----o||
||------0-0-(0)-0-0-----0-0-(0)-0-0-|-----0-0-(0)-0-0-----0-0-----0-0--||


        PM--------|     PM--------|       PM--------|     PM|     PM|
    S S S S S S S S S S S S S S S S   S S S S S S S S S S S S S S S S   4x
||----------------------------------|-----------------------------------||
||o---------------------------------|----------------------------------o||
||----------------------------------|-----------------------------------||
||----------------------------------|-----------------------------------||
||o-5h7-------------5h8-------------|-5h7-------------5h7-----5h8------o||
||------0-0-0-0-0-0-----0-0-0-0-0-0-|-----0-0-0-0-0-0-----0-0-----0-0---||


 Pre Chorus II
  E
  Q  Q  S S S S S S S S   E E E E S S S S S S S S
|-----------------------|-------------------------|
|-----------------------|-------------------------|
|-9--9------------------|-9-9-9-9-----------------|
|-8--8------------------|-8-8-8-8-----------------|
|-7--7------------------|-7-7-7-7-----------------|
|-------0-0-0-0-0-0-0-0-|---------0-0-0-0-0-0-0-0-|


  Q  Q  S S S S S S S S   E E E E H
|-----------------------|--------------|
|-----------------------|--------------|
|-9--9------------------|-9-9-9-9------|
|-8--8------------------|-8-8-8-8------|
|-7--7------------------|-7-7-7-7------|
|-------0-0-0-0-0-0-0-0-|--------------|


 Bridge
  F#5
  Gtr II
  W          +W           +W           +W
|----------|------------|------------|--------|
|-7--------|-(7)--------|-(7)--------|-(7)----|
|-6--------|-(6)--------|-(6)--------|-(6)----|
|-4--------|-(4)--------|-(4)--------|-(4)----|
|----------|------------|------------|--------|
|----------|------------|------------|--------|
|
| Gtr I
| W          +W           +W           +W
|----------|------------|------------|--------|
|----------|------------|------------|--------|
|----------|------------|------------|--------|
|-4--------|-(4)--------|-(4)--------|-(4)----|
|-4--------|-(4)--------|-(4)--------|-(4)----|
|-2--------|-(2)--------|-(2)--------|-(2)----|


  F#5
  W          +W           W           +W
|----------|------------|-----------|---------|
|-7--------|-(7)--------|-----------|---------|
|-6--------|-(6)--------|-----------|---------|
|-4--------|-(4)--------|-----------|---------|
|----------|------------|-x\--------|-(x)\----|
|----------|------------|-x\--------|-(x)\----|
|
| W          +W           W           +W
|----------|------------|-----------|---------|
|----------|------------|-----------|---------|
|----------|------------|-----------|---------|
|-4--------|-(4)--------|-----------|---------|
|-4--------|-(4)--------|-x\--------|-(x)\----|
|-2--------|-(2)--------|-x\--------|-(x)\----|


    N.C.
   6/8           7/8             6/8           7/8
    Gtr I
    E E E E E E   E E E E E E E   E E E E E E   E E E E E E E
||--------------|---------------|-------------|----------------||
||o-------------|---------------|-------------|---------------o||
||--------5-4---|-3-----2-------|-------5-4---|-3-----2--------||
||------4-----5-|---4-----3-----|-----4-----5-|---4-----3------||
||o---3---------|-----5-----4---|---3---------|-----5-----4---o||
||--2-----------|-------------5-|-2-----------|-------------5--||


   6/8                7/8
    Gtr II
    PM---------------------------------------
    E  E  E  E  E  E    E  E  E  E  E  E  E
||-------------------|----------------------|
||o---------13-12----|-11-------------------|
||-------11-------12-|----11----14----------|
||----10-------------|-------12----15-11----|
||o-9----------------|-------------------12-|
||-------------------|----------------------|
|
|   Gtr I
|   PM---------------------------------------
|   E  E  E  E  E  E    E  E  E  E  E  E  E
||-------------------|----------------------|
||o------------------|----------------------|
||-----------5--4----|--3--------2----------|
||--------4--------5-|-----4--------3-------|
||o----3-------------|--------5--------4----|
||--2----------------|--------------------5-|


 6/8                7/8
 --------------------------------------|
  E  E  E  E  E  E    E  E  E  E  E  E  E
|------------------|-----------------------||
|---------13-12----|-11-------------------o||
|------11-------12-|----11----14-----------||
|---10-------------|-------12----15-11-----||
|-9----------------|-------------------12-o||
|------------------|-----------------------||
|
|--------------------------------------|
| E  E  E  E  E  E    E  E  E  E  E  E  E
|------------------|-----------------------||
|------------------|----------------------o||
|----------5--4----|--3--------2-----------||
|-------4--------5-|-----4--------3--------||
|----3-------------|--------5--------4----o||
|-2----------------|--------------------5--||


 Solo I Christopher Amott
  Eadd6
 4/4
  Gtr III
   S  S  S  S  S  S  S  S  S  S  S  S  S  S  S  S
|-22-19----19-------------------------------------|
|-------21----21-18-21-18----18-------------------|
|-------------------------19----19-16-19-16----16-|
|-------------------------------------------18----|
|-------------------------------------------------|
|-------------------------------------------------|


                                                2/4
                                                   ~~~~
   S  S  S  S  S  S  S  S  S  S  S  S  S  S  E    +H
|----------------------------------------------|---------|
|----------------------------------------------|---------|
|----------------------------------------------|---------|
|-18-15-18-15----15----------------------------|---------|
|-------------17----17-14-17-14----14----------|---------|
|-------------------------------16----16-13-12-|-(12)----|


  E5                                   F5    Bb5
 4/4
  Gtr III
  H    Q.    E    +H.           E  E    H     S  +S      +S   S  S  S  T  +T      +T   T
|--------------|------------------12-|---------------------------------------------------|
|-----------15-|-(15)b17------/12----|-15------------------------------------------------|
|--------------|---------------------|-------14-(14)b16-(14)-12-------14-(14)b16-(14)-12-|
|--------------|---------------------|--------------------------14-12--------------------|
|--------------|---------------------|---------------------------------------------------|
|--------------|---------------------|---------------------------------------------------|
|
| Gtrs I, II
| W               +W                    H     H
|--------------|---------------------|---------------------------------------------------|
|--------------|---------------------|---------------------------------------------------|
|--------------|---------------------|---------------------------------------------------|
|--------------|---------------------|--------3------------------------------------------|
|-2------------|--(2)----------------|--3-----1------------------------------------------|
|-0------------|--(0)----------------|--1------------------------------------------------|


  D5                             F5
   S  S  S  +S      +S   S  S  S  H
|--------------------------------------|
|--------------------------------------|
|-------14-(14)b16-(14)-12-------------|
|-14-12--------------------14-12-14----|
|--------------------------------------|
|--------------------------------------|
|
|  H                              H
|--------------------------------------|
|--------------------------------------|
|--------------------------------------|
|--7-----------------------------10----|
|--5------------------------------8----|
|--------------------------------------|


  E5
  Gtr III
   E  E  E  E  E  E  Q     +Q    E  E  E  E  E  E
|-----------------------|-------------------------|
|-----------------------|-------------------------|
|-19S16-16S14-14S13-13--|-(13)--17S16-16S14-14S13-|
|-----------------------|-------------------------|
|-17S14-14S12-12S11-11--|-(11)--15S14-14S12-12S11-|
|-----------------------|-------------------------|
|
| Gtrs I, II
|  W                       +W
|-----------------------|-------------------------|
|-----------------------|-------------------------|
|-----------------------|-------------------------|
|--9--------------------|--(9)--------------------|
|--7--------------------|--(7)--------------------|
|-----------------------|-------------------------|


  F5                                  Bb5
   |------6-------|  |------6-------|  |------6-------|  |------6-------|
   S  S  S  S  S  S  S  S  S  S  S  S  S  S  S  S  S  S  S  S  S  S  S  S
|-------------------------------------------------------------------------|
|-------------------------------------------------------------------------|
|----------------------------------------------15-17-18-------------------|
|-------------------14-16-18----------14-16-18-------------------14-16-17-|
|----------13-15-17----------13-15-17-------------------13-15-17----------|
|-12-14-16----------------------------------------------------------------|
|
|  H                                   H
|-------------------------------------------------------------------------|
|-------------------------------------------------------------------------|
|-------------------------------------------------------------------------|
|--------------------------------------3----------------------------------|
|--3-----------------------------------1----------------------------------|
|--1----------------------------------------------------------------------|


  D5                                  F5
   |------6-------|  |------6-------|  |------6-------|  |------6-------|
   S  S  S  S  S  S  S  S  S  S  S  S  S  S  S  S  S  S  S  S  S  S  S  S
|--------------------------------------------------------------------------|
|----------------------------------------------------------------16-18-20--|
|-15-17-19-------------------15-17-19-------------------15-17-19-----------|
|-------------------14-16-18-------------------14-16-17--------------------|
|----------13-15-17-------------------13-15-17-----------------------------|
|--------------------------------------------------------------------------|
|
|  H                                   H
|--------------------------------------------------------------------------|
|--------------------------------------------------------------------------|
|--------------------------------------------------------------------------|
|--7----------------------------------10-----------------------------------|
|--5-----------------------------------8-----------------------------------|
|--------------------------------------------------------------------------|


  E5                                  F5          Bb5      D5       F5
  Gtr III
   |--3--|          |--3---|           |--3--|  |--3--|     |--3--|
   Q  Q  Q  H       Q   Q  Q  H        Q  Q  Q  Q  Q  Q     Q  Q  Q  H
|-------16-17----|--------17-18-----|-15-14-15-------16--|-17-------20b22----|
|----15----------|-----16-----------|----------14-15-----|----16-------------|
|-13-------------|-14---------------|--------------------|-------18----------|
|----------------|------------------|--------------------|-------------------|
|----------------|------------------|--------------------|-------------------|
|----------------|------------------|--------------------|-------------------|
|
| Gtrs I, II
|  PM---|
|  |--3--|
|  Q  Q  Q  H      +W                  H        H           H        H
|----------------|------------------|--------------------|-------------------|
|----------------|------------------|--------------------|-------------------|
|----------------|------------------|--------------------|-------------------|
|----------------|------------------|-----------3--------|--7-------10-------|
|--2--2--2--2----|-(2)--------------|--3--------1--------|--5--------8-------|
|--0--0--0--0----|-(0)--------------|--1-----------------|-------------------|

[ Tab from: http://www.guitaretab.com/a/arch-enemy/103122.html ]
  E5
  Gtr III
   |-----5-----|  |-----5-----|  |-----5-----|  |------6------|
   S  S  S  S  S  S  S  S  S  S  S  S  S  S  S  S S  S  S  S  S
|---------------------------------------------------------------|
|---------------------------------------------------------------|
|---------------------------------------------------------------|
|---------------------------------------------------------14-16-|
|----------13-15-17-15-13----------------13-15-17-3-15-17-------|
|-12-14-16----------------16-14-12-14-16------------------------|
|
| Gtrs I, II
|  W
|---------------------------------------------------------------|
|---------------------------------------------------------------|
|---------------------------------------------------------------|
|--9------------------------------------------------------------|
|--7------------------------------------------------------------|
|---------------------------------------------------------------|


   |-----5------|  |-----5-----| |------6-------|  |------6-------|
   S   S  S  S  S  S  S  S  S  S S  S  S  S  S  S  S  S  S  S  S  S
|-------------------------------------------------------------------|
|-------------------------------------------------------------17-19-|
|-----------------15-17-19-17-15-x----------15-17-19-15-17-19-------|
|-18--16-14-16-18------------------14-16-18-------------------------|
|-------------------------------------------------------------------|
|-------------------------------------------------------------------|
|
| +W
|-------------------------------------------------------------------|
|-------------------------------------------------------------------|
|-------------------------------------------------------------------|
|-(9)---------------------------------------------------------------|
|-(7)---------------------------------------------------------------|
|-------------------------------------------------------------------|


  F5                            Bb5
   |-----5-----|  |-----5-----|  |------6-------|  |--------7--------|
   S  S  S  S  S  S  S  S  S  S  S  S  S  S  S  S  S  S  S  S  S  S  S
|-------------------------------18-20-22-20-18----------------18-20-22-|
|-21----------17-19-21-17-19-21----------------21-19-17-19-21----------|
|----15-17-19----------------------------------------------------------|
|----------------------------------------------------------------------|
|----------------------------------------------------------------------|
|----------------------------------------------------------------------|
|
|  H                             H
|----------------------------------------------------------------------|
|----------------------------------------------------------------------|
|----------------------------------------------------------------------|
|--------------------------------3-------------------------------------|
|--3-----------------------------1-------------------------------------|
|--1-------------------------------------------------------------------|


  D5       F5
   ~~~~~    TP
   H        H
|-22b24----22b24----|
|-------------------|
|-------------------|
|-------------------|
|-------------------|
|-------------------|
|
|  H        H
|-------------------|
|-------------------|
|-------------------|
|--7-------10-------|
|--5--------8-------|
|-------------------|


  E5        Bb5         B5          C5    C#5     D5
  Gtr III
   +Q       Q    Q      Q      Q      Q    Q      Q
|-(22)b24-------22b24-------|-22b24-------22b24-------|
|---------------------------|-------------------------|
|---------------------------|-------------------------|
|---------------------------|-------------------------|
|---------------------------|-------------------------|
|---------------------------|-------------------------|
|
| Gtr I
|         PM|    PM---|   PM--|       PM|       PM  PM
|   E     E E E  E    E E E    E    E E E  E    E E E
|---------------------------|-------------------------|
|---------------------------|-------------------------|
|---------------------------|-------------------------|
|---9-----------------------|-------5------6------7---|
|---7---------8---------9---|-------3------4------5---|
|---------0-0-6--0----0-7-0-|--0------0-0-------0---0-|
|
| Gtr II
|   W                          W
|---------------------------|-------------------------|
|---------------------------|-------------------------|
|---------------------------|-------------------------|
|---------------------------|-------------------------|
|---------------------------|-------------------------|
|---------------------------|-------------------------|


  EBb5        B5      C5 D5 C#
  W                 W
|-----------------|-----------------|
|-----------------|-----------------|
|-----------------|-----------------|
|-----------------|-----------------|
|-----------------|-----------------|
|-----------------|-----------------|
|
|   PM|   PM|   PM--|   PM|   PM  PM
| E E E E E E E E   E E E E E E E E
|-----------------|-----------------|
|-----------------|-----------------|
|-----------------|-----------------|
|-9---------------|---5-----6---7---|
|-7-----8-----9---|---3-----4---5---|
|---0-0-6-0-0-7-0-|-0---0-0---0---0-|
|
| E E E E E E E E   E E E E E E E E
|-----------------|-----------------|
|-----------------|-----------------|
|-----------------|-----------------|
|-9---------------|---5-----6---7---|
|-7-----8-----9---|---3-----4---5---|
|-------6-----7---|-----------------|


  E5    Bb5   B5      C5    C#5 D5    E5
  Gtrs I, II
    PM|   PM|   PM--|   PM|   PM  PM
  E E E E E E E E   E E E E E E E E   Q   H.        W
|-----------------|-----------------|-------------|------|
|-----------------|-----------------|-------------|------|
|-----------------|-----------------|-------------|------|
|-9---------------|---5-----6---7---|-9\----------|------|
|-7-----8-----9---|---3-----4---5---|-7\----------|------|
|---0-0-6-0-0-7-0-|-0---0-0---0---0-|-------------|------|


 Solo II Michael Amott
  E5                  Bb5                 B5
  Gtr III
   |------5------|  |------5------|  |------5------|  |------5------|
   S  S  S    S  S  S  S  S    S  S  S  S  S    S  S  S  S  S    S  S
|-17-18-19------------17-18---19----------17---18-19------------17-18-|
|------------15-16-17------------15-16-17------------15-16-17---------|
|---------------------------------------------------------------------|
|---------------------------------------------------------------------|
|---------------------------------------------------------------------|
|---------------------------------------------------------------------|
|
| Gtrs II, III
|          PM------|                 PM------|                PM-------
|  E       E        E       E        E       E        E       E
|---------------------------------------------------------------------|
|---------------------------------------------------------------------|
|---------------------------------------------------------------------|
|--9------------------------------------------------------------------|
|--7------------------------8-------------------------9---------------|
|----------0--------0-------6--------0-------0--------7-------0-------|


  C5         C#5         D5
   |------5------|  |------5------|  |------5------|  |------5------|
   S  S  S    S  S  S  S  S    S  S  S  S  S    S  S  S  S  S    S  S
|-19------------17-18-19------------17-18-19------------17-18---19-----|
|----15-16---17----------15---16-17------------15-16-17------------17--|
|----------------------------------------------------------------------|
|----------------------------------------------------------------------|
|----------------------------------------------------------------------|
|----------------------------------------------------------------------|
|
|-|                 PM------|                PM               PM
|  E       E        E       E        E       E        E       E
|----------------------------------------------------------------------|
|----------------------------------------------------------------------|
|----------------------------------------------------------------------|
|----------5-------------------------6----------------7----------------|
|----------3-------------------------4----------------5----------------|
|--0----------------0-------0----------------0----------------0--------|


  E5                  Bb5                 B5
   |------5------|  |------5------|  |------5------|  |------5------|
   S  S  S    S  S  S  S  S    S  S  S  S  S    S  S  S  S  S    S  S
|-18-19-20------------18-19---20----------18---19-20------------18-19-|
|------------16-17-18------------16-17-18------------16-17-18---------|
|---------------------------------------------------------------------|
|---------------------------------------------------------------------|
|---------------------------------------------------------------------|
|---------------------------------------------------------------------|
|
|          PM------|                 PM------|                PM-------
|  E       E        E       E        E       E        E       E
|---------------------------------------------------------------------|
|---------------------------------------------------------------------|
|---------------------------------------------------------------------|
|--9------------------------------------------------------------------|
|--7------------------------8-------------------------9---------------|
|----------0--------0-------6--------0-------0--------7-------0-------|


        C5                    C#5         D5
   |------5------|  |------5------|  |------5------|  |------5------|
   S  S  S    S  S  S  S  S    S  S  S  S  S    S  S  S  S  S    S  S
|-20------------18-19-20------------18-19-20------------18-19---20-----|
|----16-17---18----------16---17-18------------16-17-18------------18--|
|----------------------------------------------------------------------|
|----------------------------------------------------------------------|
|----------------------------------------------------------------------|
|----------------------------------------------------------------------|
|
|-|                 PM------|                PM
|  E       E        E       E        E       E        E       E
|----------------------------------------------------------------------|
|----------------------------------------------------------------------|
|----------------------------------------------------------------------|
|----------5-------------------------6----------------7----------------|
|----------3-------------------------4----------------5----------------|
|--0----------------0-------0----------------0----------------0--------|


  E5                  Bb5                 B5
   |------5------|  |------5------|  |------5------|  |------5------|
   S  S  S    S  S  S  S  S    S  S  S  S  S    S  S  S  S  S    S  S
|-19-20-21------------19-20---21----------19---20-21------------19-20-|
|------------17-18-19------------17-18-19------------17-18-19---------|
|---------------------------------------------------------------------|
|---------------------------------------------------------------------|
|---------------------------------------------------------------------|
|---------------------------------------------------------------------|
|
|          PM------|                 PM------|                PM-------
|  E       E        E       E        E       E        E       E
|---------------------------------------------------------------------|
|---------------------------------------------------------------------|
|---------------------------------------------------------------------|
|--9------------------------------------------------------------------|
|--7------------------------8-------------------------9---------------|
|----------0--------0-------6--------0-------0--------7-------0-------|


        C5                       CD5
   |------5------|  |-------5-------|  |------5------|  |------5------|
   S  S  S    S  S  S  S  S    S    S  S  S  S    S  S  S  S  S    S  S
|-21------------19-20-21--------------19-20-21------------19-20---21-------|
|----17-18---19----------17---18---19------------17-18-19------------19----|
|--------------------------------------------------------------------------|
|--------------------------------------------------------------------------|
|--------------------------------------------------------------------------|
|--------------------------------------------------------------------------|
|
|-|                 PM------|                  PM
|  E       E        E       E          E       E        E       E
|--------------------------------------------------------------------------|
|--------------------------------------------------------------------------|
|--------------------------------------------------------------------------|
|----------5---------------------------6----------------7------------------|
|----------3---------------------------4----------------5------------------|
|--0----------------0-------0------------------0----------------0----------|


  E5                  Bb5                 B5
~~~~~~~~~~~~~~~~~~~~~~~~~~~~~~~~~~~~~~~~~~~~~~~~~~~~~~~~~~~~~~~~~~~~~~~
   |------5------|  |------5------|  |------5------|  |------5------|
   S  S  S    S  S  S  S  S    S  S  S  S  S    S  S  S  S  S    S  S
|-20-22-21------------20-21---22----------20---21-22------------20-21-|
|------------18-19-20------------18-19-20------------18-19-20---------|
|---------------------------------------------------------------------|
|---------------------------------------------------------------------|
|---------------------------------------------------------------------|
|---------------------------------------------------------------------|
|
|          PM------|                 PM------|                PM-------
|  E       E        E       E        E       E        E       E
|---------------------------------------------------------------------|
|---------------------------------------------------------------------|
|---------------------------------------------------------------------|
|--9------------------------------------------------------------------|
|--7------------------------8-------------------------9---------------|
|----------0--------0-------6--------0-------0--------7-------0-------|


     C5    C#5       D5
 ~~~~~~~~~~~~TP~~~~
   H        +H
|-22-------(22)b23-------|
|------------------------|
|------------------------|
|------------------------|
|------------------------|
|------------------------|
|
|-|    PM|         PM
|  E E E E   E     E E E
|------------------------|
|------------------------|
|------------------------|
|----5-------6-------7---|
|----3-------4-------5---|
|--0---0-0---------0---0-|


 Chorus II
  E5
   ~~~~~~~~~~~~~~~~~~~~~~~~~
   H        H          W
|-22b24----22b24----|-22b24--------|
|-------------------|--------------|
|-------------------|--------------|
|-------------------|--------------|
|-------------------|--------------|
|-------------------|--------------|
|
|  W                  +W
|-------------------|--------------|
|-------------------|--------------|
|-------------------|--------------|
|-------------------|--------------|
|--2----------------|-(2)----------|
|--0----------------|-(0)----------|


  F5              Bb5           D5       F5
                    ~~~~~~~~
                                 |--3--|  |-----3-----|
   Q      E  E     +H            Q  Q  Q  Q  E  S  S  Q
|--------22-------------------|-------------------------|
|-22b24-----22b24-(22)pb24----|-22-20-19-20-19h20p19----|
|-----------------------------|----------------------21-|
|-----------------------------|-------------------------|
|-----------------------------|-------------------------|
|-----------------------------|-------------------------|
|
|  H                H            H        H
|-----------------------------|-------------------------|
|-----------------------------|-------------------------|
|-----------------------------|-------------------------|
|-------------------3---------|--7-------10-------------|
|--3----------------1---------|--5--------8-------------|
|--1--------------------------|-------------------------|


  E5                               F5   Bb5    D5   F5
              ~~~~~~~~~~~~
   Q.   S  S  H       +W           W           W
|------------------|-------------|-----------|------------|
|-19h==20p19-------|-------------|-----------|------------|
|------------21----|-(21)--------|-----------|------------|
|------------------|-------------|-----------|------------|
|------------------|-------------|-----------|------------|
|------------------|-------------|-----------|------------|
|
|  W                  +W           H    H      H     H
|------------------|-------------|-----------|------------|
|------------------|-------------|-----------|------------|
|------------------|-------------|-----------|------------|
|--9---------------|--(9)--------|------3----|-7----10----|
|--7---------------|--(7)--------|-3----1----|-5-----8----|
|------------------|-------------|-1---------|------------|


  E5                      F5   Bb5    D5   F5
  W          +W           H    H      H     H
|----------|------------|-----------|------------|
|----------|------------|-----------|------------|
|----------|------------|-----------|------------|
|-9--------|-(9)--------|------3----|-7----10----|
|-7--------|-(7)--------|-3----1----|-5-----8----|
|----------|------------|-1---------|------------|


  E5                      F5   Bb5    D5   F5
  W          +W           H    H      H     H
|----------|------------|-----------|------------|
|----------|------------|-----------|------------|
|----------|------------|-----------|------------|
|-9--------|-(9)--------|------3----|-7----10----|
|-7--------|-(7)--------|-3----1----|-5-----8----|
|----------|------------|-1---------|------------|


   Outro
    E5    Bb5   B5      C5    C#5 D5    E5    Bb5   B5      C5    C#5 D5
      PM|   PM|   PM--|   PM|   PM  PM    PM|   PM|   PM--|   PM|   PM  PM
    E E E E E E E E   E E E E E E E E   E E E E E E E E   E E E E E E E E
||------------------|-----------------|-----------------|-------------------||
||o-----------------|-----------------|-----------------|------------------o||
||------------------|-----------------|-----------------|-------------------||
||--9---------------|---5-----6---7---|-9---------------|---5-----6---7-----||
||o-7-----8-----9---|---3-----4---5---|-7-----8-----9---|---3-----4---5----o||
||----0-0-6-0-0-7-0-|-0---0-0---0---0-|---0-0-6-0-0-7-0-|-0---0-0---0---0---||


  E5              N.C.(Em)
                      PM--------|     PM--------|
  q  q  q  q      S S S S S S S S S S S S S S S S
|-------------||----------------------------------|
|-------------||o---------------------------------|
|-------------||----------------------------------|
|-------------||----------------------------------|
|-2--2--2--2--||o-5h7-------------5h8-------------|
|-0--0--0--0--||------0-0-0-0-0-0-----0-0-0-0-0-0-|


      PM--------|     PM|     PM|
  S S S S S S S S S S S S S S S S
|------------------------------------||
|-----------------------------------o||
|------------------------------------||
|------------------------------------||
|-5h7-------------5h7-----5h8-------o||
|-----0-0-0-0-0-0-----0-0-----0-0----||


  E
  Q  Q  S S S S S S S S   E E E E S S S S S S S S
|-----------------------|-------------------------|
|-----------------------|-------------------------|
|-9--9------------------|-9-9-9-9-----------------|
|-8--8------------------|-8-8-8-8-----------------|
|-7--7------------------|-7-7-7-7-----------------|
|-------0-0-0-0-0-0-0-0-|---------0-0-0-0-0-0-0-0-|


  Q  Q  S S S S S S S S   E E E E H
|-----------------------|--------------*|
|-----------------------|--------------*|
|-9--9------------------|-9-9-9-9------*|
|-8--8------------------|-8-8-8-8------*|
|-7--7------------------|-7-7-7-7------*|
|-------0-0-0-0-0-0-0-0-|--------------*|



Duration Legend
---------------
W - whole; H - half; Q - quarter; E - 8th; S - 16th; T - 32nd; X - 64th; a - acciaccatura
+ - note tied to previous; . - note dotted; .. - note double dotted
Uncapitalized letters represent notes that are staccato (1/2 duration)
Irregular groupings are notated above the duration line
Duration letters will always appear directly above the note/fret number it represents the
duration for.  Duration letters with no fret number below them represent rests.  Multi-
bar rests are notated in the form Wxn, where n is the number of bars to rest for.  Low
melody durations appear below the staff

Tablature Legend
----------------
 h   - hammer-on
 p   - pull-off
 b   - bend
 pb  - pre-bend
 r   - bend release (if no number after the r, then release immediately)
 /\  - slide into or out of (from/to "nowhere")
 s   - legato slide
 S   - shift slide
 - natural harmonic
[n]  - artificial harmonic
n(n) - tapped harmonic
 ~   - vibrato
 tr  - trill
 T   - tap
 TP  - trem. picking
 PM  - palm muting
\n/  - tremolo bar dip; n = amount to dip
 \n  - tremolo bar down
 n/  - tremolo bar up
/n\  - tremolo bar inverted dip
 =   - hold bend; also acts as connecting device for hammers/pulls
 <> - volume swell (louder/softer)
 x   - on rhythm slash represents muted slash
 o   - on rhythm slash represents single note slash

Misc Legend
-----------
 |  - bar
||  - double bar
||o - repeat start
o|| - repeat end
*|  - double bar (ending)
 :  - bar (freetime)
 $  - Segno
 &  - Coda
Tempo markers -  = BPM(8/16=s8/s16), where s8 = swing 8ths, s16 = swing 16ths

Related for Silent Wars tab