Song name
# A B C D E F G H I J K L M N O P Q R S T U V W X Y Z

Arch Enemy - The Last Enemy tab

Help us improve GuitareTab! Take a short survey!
This song is insane but goog luck

Intro


|--------------------------------------------------------------|
|.-------------------------------------------------------------|
|--------------------------------------------------------------|
|--------------------------------------------------------------|
|.-7--------8--------------------------------------------------|
|---0-0-0-0---0-0-0-0-0-0-0-0-0-0-0-0-0-0-0-0-0-0-0-0-0-0-0-0--|


--------------------------------------------------------------|
-------------------------------------------------------------.|
--------------------------------------------------------------|
--------------------------------------------------------------|
-13--------10---------------------------------6-6-3-3-6-6-3-3.|
---0-0-0-0----0-0-0-0-0-0-0-0-0-0-0-0-0-0-0-0-----------------|


-------------------------|
-------------------------|
-------------------------|
-------------------------|
-6-6-4-4-6-6-4-4---------|
-----------------7-------|


|--------------------------------------------------------------|
|.-------------------------------------------------------------|
|--------------------------------------------------------------|
|--------------------------------------------------------------|
|.-7--------8--------------------------------------------------|
|---0-0-0-0---0-0-0-0-0-0-0-0-0-0-0-0-0-0-0-0-0-0-0-0-0-0-0-0--|


--------------------------------------------------------------|
-------------------------------------------------------------.|
--------------------------------------------------------------|
--------------------------------------------------------------|
-13--------10---------------------------------6-6-3-3-6-6-3-3.|
---0-0-0-0----0-0-0-0-0-0-0-0-0-0-0-0-0-0-0-0-----------------|


---------------------------------|
---------------------------------|
---------------------------------|
---------------------------------|
-6-6-3-3-6-6-3-3-5-5-2-2-5-5-2-2-|
---------------------------------|

Bridge

|---------------------------------------------------------------------|
|.-------------------------------------------------------------------.|
|---------------------------------------------------------------------|
|---5------9------ 7-------9------5------9----------------------------|
|.--3------7-------5-------7------3------7---------------------------.|
|-------------------------------------------0-0-0--0--0--0-0-0--0--0--|

----
----
----
-4--
-2--
----


Verse

This is just a variation of the riff seen in the intro.
Use a controlled picking motion, moving from your wristand keeping
your forearm relaxed.


|--------------------------------------------------------------|
|.-------------------------------------------------------------|
|--------------------------------------------------------------|
|--------------------------------------------------------------|
|.-7--------8--------------------------------------------------|
|---0-0-0-0---0-0-0-0-0-0-0-0-0-0-0-0-0-0-0-0-0-0-0-0-0-0-0-0--|


--------------------------------------------------------------|
-------------------------------------------------------------.|
--------------------------------------------------------------|
--------------------------------------------------------------|
-13--------10---------------------------------6-6-3-3-6-6-3-3.|
---0-0-0-0----0-0-0-0-0-0-0-0-0-0-0-0-0-0-0-0-----------------|


Chorus

-----------------------------------------------------------------------|
-----------------------------------------------------------------------|
--9h11---9------11--9--12--9--11--12--11--9-------11--9--12--9--11--12-|
------------9--------------------------------10------------------------|
-----------------------------------------------------------------------|
-----------------------------------------------------------------------|

--------------------------------------------9--------------------------|
--10/12---10------12--10------10/12--10--12----12h10--12---------------|
-------------9------------8--------------------------------------------|
-----------------------------------------------------------------------|
-----------------------------------------------------------------------|
-----------------------------------------------------------------------|

---12-(14)--(12)-------14--12--15---12--14-15--14--12-----14-12-15-12-14-15-|
-----------------12-----------------------------------13--------------------|
----------------------------------------------------------------------------|
----------------------------------------------------------------------------|
----------------------------------------------------------------------------|
----------------------------------------------------------------------------|

--17/19---17-12---19--17----19-17-19--20--19p17--19-----|
-------------------------16-----------------------------|
--------------------------------------------------------|
--------------------------------------------------------|
--------------------------------------------------------|
--------------------------------------------------------|


Interlude 1

--7-0-0-0-5-0-0-0-3-0-0-0-2-0-0-0-7p5p3---3---------------------|
----------------------------------------7---7p5p4-7p5p4---------|
--------------------------------------------------------5p4-----|
----------------------------------------------------------------|
----------------------------------------------------------------|
----------------------------------------------------------------|


-15-0-0-0-14-0-0-0-12-0-0-0-11-0-0-0-14p12p11----11--------------------------|
----------------------------------------------13----13p12p10-13p12p10--------|
----------------------------------------------------------------------12p11--|
-----------------------------------------------------------------------------|
-----------------------------------------------------------------------------|
-----------------------------------------------------------------------------|

-19-0-0-0-17-0-0-0-15-0-0-0-14-0-0-0-19p17p15----15--------------------------|
----------------------------------------------19----19p17p16-19p17p16--------|
----------------------------------------------------------------------17p16--|
-----------------------------------------------------------------------------|
-----------------------------------------------------------------------------|
-----------------------------------------------------------------------------|


-24-0-0-0-22-0-0-0-20-0-0-0-19-0-0-0-22p20p19----19--------------------------|
----------------------------------------------22----22p20p19-22p20p19--------|
----------------------------------------------------------------------21p20--|
-----------------------------------------------------------------------------|
-----------------------------------------------------------------------------|
-----------------------------------------------------------------------------|


i can be bothered to write  the solo yet its just too damn big

anyway have fun
Related for The Last Enemy tab