Song name
# A B C D E F G H I J K L M N O P Q R S T U V W X Y Z

Arch Enemy - Revolution Begins tab

i posted an intro of this as well but this is better

Its No Perfect But
Hopefully someone will tab the full :)

Tuning Is
C-F-Bb-Eb-G-C

Riff 1 (Listen To Song For Timing)

|------------------------------------------|
|------------------------------------------|
|----------------5-5-5-5-5-7-7-7-7-7-7-7-7-|
|------2-2-2-2-2-3-3-3-3-3-5-5-5-5-5-4-4-4-|
|--3-5-0-0-0-0-0---------------------------|
|--1-3-------------------------------------|

Changes To(BEFORE RIFF 2)

|-------------------------------------------------------|
|-------------------------------------------------------|
|-------------------------------------------------------|
|------2-2-2-2-2-10-10-10-10-10-12-12-12-12-12-12-12-12-|
|--3-5-0-0-0-0-0--8--8--8--8--8-10-10-10-10-10--9--9--9-|
|--1-3--------------------------------------------------|

Riff 2 (LISTEN TO SONG FOR TIMING)
         P
|-----------------------------------------|
|-----------------------------------------|
|-------5^4-------------------------------|
|------------7--5/7-----------------------|x2 (play once on the 2nd tim2)
|-----------------------------------------|
|-----------------------------------------|   

|-----------------------------------------|
|-----------------------------------------|
|-------5-4-------------------------------|
|------------7--5/7-2---------------------|2nd Time Only!!!!
|-----------------------------------------|
|-----------------------------------------|

|-----------------------------------------|
|-----------------------------------------|
|-------5^4-------------------------------|
|------------7--5/7-----------------------|
|-----------------------------------------|
|-----------------------------------------|

|-----------------------------------------|
|-----------------------------------------|
|-------5-4-------7-5---------------------|
|-----------------------------------------|
|-----------------------------------------|
|-----------------------------------------|

Verse 

|------------5-------5-------5-------5----|
|----------8-------7-------7-------7------|
|--------5-------5-------5-------5--------|
|-------7------7-------0-------7----------|
|-----------------------------------------|
|-----------------------------------------|

(Distortion)
|-----------------------------------------|
|-----------------------------------------|
|-----------------------------------------|
|-----------------------------------------|
|-------2--3------5--------8------9-------|
|---5-------------------------------------|

|-----------------------------------------|
|-----------------------------------------|
|-----------------------------------------|
|-----------------------------------------|
|-11--11-12-11--12--11-12----11--12-------|
|-----------------------------------------|
      |Pm--------------------------|

Pre Chorus


|-----------------------------------------|
|-----------------------------------------|
|-----------------------------------------|
|-----------------------------------------|
|-----------------------------------------|
|--1--1--1--1--1-1-4-1--0-4-0-4-----------|
\Pm---------------------------------------/

Chorus
play riff 2*

solo (i couldn't figure it all out)


|-6--5-3---6-5-3--5--6-5-3-5-6-8--8(b)8---|
|--------3--------------------------------|
|-----------------------------------------|
|-----------------------------------------|
|-----------------------------------------|
|-----------------------------------------|

                          thrill
|--/4-/6-/8---11-11--11-13-11(13)--\10----|
|-----------------------------------------|
|-----------------------------------------|
|-----------------------------------------|
|-----------------------------------------|
|-----------------------------------------|

|---15-22-15-20-15-19-15-17---------------|
|-----------------------------------------|
|-----------------------------------------|
|-----------------------------------------|
|-----------------------------------------|
|-----------------------------------------|


dont know rest


breakdown
|-----------------------------------------|
|-----------------------------------------|
|-----------------------------------------|
|-----------------------------------------|
|-----------------------------------------|
|-----------------------------------------|

|-----------------------------------------|
|-----------------------------------------|
|-----------------------------------------|
|-----------------------------------------|
|-----------------------------------------|
|--0--0--0--0--00-00-00-0-0-000-0-1-1-----|repeat as much as necessary
Tap to rate this tab
# A B C D E F G H I J K L M N O P Q R S T U V W X Y Z