Song name
# A B C D E F G H I J K L M N O P Q R S T U V W X Y Z

Arch Enemy - Leader Of The Rats tab

#----------------------------------PLEASE NOTE---------------------------------#
#This file is the author's own work and represents their interpretation of the #
#song. You may only use this file for private study, scholarship, or research. #
#------------------------------------------------------------------------------#

LEADER OF THE RATS
As recorded by Arch Enemy
(From the 2003 Album ANTHEMS OF REBELLION)

Transcribed by Laurien Woodgate
	

Words by Angela Gossow, Michael Amott Music by Christopher Amott, Michael Amott, Sharlee D'angelo
Arranged by Laurien Woodgate

Gtr I (A# F A# D# G C) - 'Michael Amott'
Gtr II (A# F A# D# G C) - 'Christopher Amott'
Gtr III (A# F A# D# G C) - 'Michael Ammot lead'
Gtr IV (A# F A# D# G C) - 'Michael Amott clean'
Gtr V (A# F A# D# G C) - 'Christoper Amott clean (w/delay)'

 Intro
  Q=140
 4/4
  Gtr I
  E E E E E E E E   E E E E E  E E E   E E E E E E E E   E E E E E  E E E
|-----------------|------------------|-----------------|-------------------|
|-----------------|------------------|-----------------|-------------------|
|-8-7-7-8-7-7-8-7-|-7-8-7-7-8-10-8-7-|-8-7-7-8-7-7-8-7-|-7-8-7-7-8-10-8-7--|
|-0-0-0-0-0-0-0-0-|-0-0-0-0-0--0-0-0-|-0-0-0-0-0-0-0-0-|-0-0-0-0-0--0-0-0--|
|-----------------|------------------|-----------------|-------------------|
|-----------------|------------------|-----------------|-------------------|


  E E E E E E E E   E E E E E  E E E   E E E E E E E E   E E E E E  E E E
|-----------------|------------------|-----------------|------------------|
|-----------------|------------------|-----------------|------------------|
|-8-7-7-8-7-7-8-7-|-7-8-7-7-8-10-8-7-|-8-7-7-8-7-7-8-7-|-7-8-7-7-8-10-8---|
|-0-0-0-0-0-0-0-0-|-0-0-0-0-0--0-0-0-|-0-0-0-0-0-0-0-0-|-0-0-0-0-0--0-0---|
|-----------------|------------------|-----------------|------------------|
|-----------------|------------------|-----------------|------------------|
|
| Gtr II
| E E E E E E E E   E E E E E  E E E   E E E E E E E E   E E E E E  E E E
|-----------------|------------------|-----------------|------------------|
|-----------------|------------------|-----------------|------------------|
|-----------------|------------------|-----------------|------------------|
|-----------------|------------------|-----------------|------------------|
|-----------------|------------------|-----------------|------------------|
|-0-0-0-0-0-0-0-0-|-0-0-0-0-0--0-0-0-|-0-0-0-0-0-0-0-0-|-0-0-0-0-0--0-0---|


   Pre-Verse
      C5Eb5 EbF#5  G5   D5
    Gtrs I, II
    PM    PM     PM       PM---------------------
    E E E E E  E E  E   E S S S S e e S S S S e
||--------------------|-------------------------|
||o-------------------|-------------------------|
||--------------------|-------------------------|
||----5S8---8S11---12S|=7-----------------------|
||o---3S6---6S=9---10S|=5-----------------------|
||--0-----0------0----|---0-0-0-0-0-0-0-0-0-0-0-|


    C5Eb5 EbF#5  G5   D5
 -|     PM     PM       PM------------------|
  E E E E E  E E  E   E S S S S e e S S S S e
|-------------------|--------------------------||
|-------------------|-------------------------o||
|-------------------|--------------------------||
|---5S8---8S11---12S|=7------------------------||
|---3S6---6S=9---10S|=5-----------------------o||
|-0-----0------0----|---0-0-0-0-0-0-0-0-0-0-0--||


 Verse
    C5Eb5 EbF#5  G5   D5
  Gtr I
  PM    PM     PM       PM---------------------
  E E E E E  E E  E   E S S S S e e S S S S e
|-------------------|-------------------------|
|-------------------|-------------------------|
|-------------------|-------------------------|
|---5S8---8S11---12S|=7-----------------------|
|---3S6---6S=9---10S|=5-----------------------|
|-0-----0------0----|---0-0-0-0-0-0-0-0-0-0-0-|


    C5Eb5 EbF#5  G5   D5
 -|     PM     PM       PM------------------|
  E E E E E  E E  E   E S S S S e e S S S S e
|-------------------|--------------------------|
|-------------------|--------------------------|
|-------------------|--------------------------|
|---5S8---8S11---12S|=7------------------------|
|---3S6---6S=9---10S|=5------------------------|
|-0-----0------0----|---0-0-0-0-0-0-0-0-0-0-0--|


    C5Eb5 EbF#5  G5                               C5Eb5 EbF#5  G5   D5
                                                               Gtrs I, II
  PM    PM     PM       PM----------------------|     PM     PM
  E E E E E  E E  E   E S S S S e e S S S S e   E E E E E  E E  E   E H..
|-------------------|-------------------------|-------------------|----------|
|-------------------|-------------------------|-------------------|----------|
|-------------------|-------------------------|-------------------|----------|
|---5S8---8S11---12S|=7-----------------------|---5S8---8S11---12S|=7--------|
|---3S6---6S=9---10S|=5-----------------------|---3S6---6S=9---10S|=5--------|
|-0-----0------0----|---0-0-0-0-0-0-0-0-0-0-0-|-0-----0------0----|----------|


      C5Eb5 EbF#5  G5   D5
    PM    PM     PM       PM---------------------
    E E E E E  E E  E   E S S S S e e S S S S e
||--------------------|-------------------------|
||o-------------------|-------------------------|
||--------------------|-------------------------|
||----5S8---8S11---12S|=7-----------------------|
||o---3S6---6S=9---10S|=5-----------------------|
||--0-----0------0----|---0-0-0-0-0-0-0-0-0-0-0-|


    C5Eb5 EbF#5  G5   D5
 -|     PM     PM       PM------------------|
  E E E E E  E E  E   E S S S S e e S S S S e  4x
|-------------------|--------------------------||
|-------------------|-------------------------o||
|-------------------|--------------------------||
|---5S8---8S11---12S|=7------------------------||
|---3S6---6S=9---10S|=5-----------------------o||
|-0-----0------0----|---0-0-0-0-0-0-0-0-0-0-0--||


 Chorus
  Dsus2             Esus2     Csus2   Bsus2   Asus2
  Gtr I
   ~~~~~
   H..               E      E  q       q       Q.
|-12----------------14----|---10-------9-------7--------|
|-15b17-------------17b19-|---13b15---12b14---10b12-----|
|-------------------------|-----------------------------|
|-------------------------|-----------------------------|
|-------------------------|-----------------------------|
|-------------------------|-----------------------------|
|
| Gtr II
|  E    E E E E E E  E      E  E    E  E    E  E    E E
|-------------------------|-----------------------------|
|-------------------------|-----------------------------|
|-------------------------|-----------------------------|
|--9----9-9-9-9-9-9--9----|-9--9----9--9----9--9----9-9-|
|--7----7-7-7-7-7-7--7----|-7--7----7--7----7--7----7-7-|
|-------------------------|-----------------------------|


  C5        D5           E5
                     ~~~~~~~~~~~~~~~~~~~~~~~~~~~~
   Q    Q    E  Q    E    +H..              +E
|----------------------|-------------------------|
|-13---13---12-10---12-|-(12)--------------(12)\-|
|----------------------|-------------------------|
|----------------------|-------------------------|
|----------------------|-------------------------|
|----------------------|-------------------------|
|
|  E E  E E  E  E E  E     E   E E E E E E   E
|----------------------|-------------------------|
|----------------------|-------------------------|
|----------------------|-------------------------|
|--5-5--5-5--7--7-7--7-|---9---9-9-9-9-9-9---9---|
|--3-3--3-3--5--5-5--5-|---7---7-7-7-7-7-7---7---|
|----------------------|-------------------------|


  Dsus2             Esus2             Csus2 Bsus2   Asus2
   ~~~~~
   H..               E      E  q       q       Q.
|-12----------------14----|---10-------9-------7--------|
|-15b17-------------17b19-|---13b15---12b14---10b12-----|
|-------------------------|-----------------------------|
|-------------------------|-----------------------------|
|-------------------------|-----------------------------|
|-------------------------|-----------------------------|
|
|  E    E E E E E E  E      E  E    E  E    E  E    E E
|-------------------------|-----------------------------|
|-------------------------|-----------------------------|
|-------------------------|-----------------------------|
|--9----9-9-9-9-9-9--9----|-9--9----9--9----9--9----9-9-|
|--7----7-7-7-7-7-7--7----|-7--7----7--7----7--7----7-7-|
|-------------------------|-----------------------------|


  C5      D5        E5
  Q   Q   E Q   E   +W
|-----------------|-------------------|
|-8---7-----------|-------------------|
|---------9-7---9-|-(9)---------------|
|-----------------|-------------------|
|-----------------|-------------------|
|-----------------|-------------------|
|
| E E E E E E E E    E  E E E E E E E
|-----------------|-------------------|
|-----------------|-------------------|
|-----------------|-------------------|
|-5-5-5-5-7-7-7-7-|--9--9-9-9-9-9-9-9-|
|-3-3-3-3-5-5-5-5-|--7--7-7-7-7-7-7-7-|
|-----------------|-------------------|


 Pre-Verse
  Gtr I
  E E E E E E E E   E E E E E  E E E   E E E E E E E E   E E E E E  E E E
|-----------------|------------------|-----------------|------------------|
|-----------------|------------------|-----------------|------------------|
|-8-7-7-8-7-7-8-7-|-7-8-7-7-8-10-8-7-|-8-7-7-8-7-7-8-7-|-7-8-7-7-8-10-8---|
|-0-0-0-0-0-0-0-0-|-0-0-0-0-0--0-0-0-|-0-0-0-0-0-0-0-0-|-0-0-0-0-0--0-0---|
|-----------------|------------------|-----------------|------------------|
|-----------------|------------------|-----------------|------------------|
|
| Gtr II
| W                 W                  E E E E E E E E   E E E E E  E E E
|-----------------|------------------|-----------------|------------------|
|-----------------|------------------|-----------------|------------------|
|-----------------|------------------|-----------------|------------------|
|-----------------|------------------|-----------------|------------------|
|-----------------|------------------|-----------------|------------------|
|-----------------|------------------|-0-0-0-0-0-0-0-0-|-0-0-0-0-0--0-0---|


   Verse
      C5Eb5 EbF#5  G5   D5
    Gtr I
    PM    PM     PM       PM---------------------
    E E E E E  E E  E   E S S S S e e S S S S e
||--------------------|-------------------------|
||o-------------------|-------------------------|
||--------------------|-------------------------|
||----5S8---8S11---12S|=7-----------------------|
||o---3S6---6S=9---10S|=5-----------------------|
||--0-----0------0----|---0-0-0-0-0-0-0-0-0-0-0-|


    C5Eb5 EbF#5  G5   D5
 -|     PM     PM       PM------------------|
  E E E E E  E E  E   E S S S S e e S S S S e  4x
|-------------------|--------------------------||
|-------------------|-------------------------o||
|-------------------|--------------------------||
|---5S8---8S11---12S|=7------------------------||
|---3S6---6S=9---10S|=5-----------------------o||
|-0-----0------0----|---0-0-0-0-0-0-0-0-0-0-0--||


 Chorus
  Dsus2             Esus2             Csus2 Bsus2   Asus2
  Gtr I
   ~~~~~
   H..               E      E  q       q       Q.
|-12----------------14----|---10-------9-------7--------|
|-15b17-------------17b19-|---13b15---12b14---10b12-----|
|-------------------------|-----------------------------|
|-------------------------|-----------------------------|
|-------------------------|-----------------------------|
|-------------------------|-----------------------------|
|
| Gtr II
|  E    E E E E E E  E      E  E    E  E    E  E    E E
|-------------------------|-----------------------------|
|-------------------------|-----------------------------|
|-------------------------|-----------------------------|
|--9----9-9-9-9-9-9--9----|-9--9----9--9----9--9----9-9-|
|--7----7-7-7-7-7-7--7----|-7--7----7--7----7--7----7-7-|
|-------------------------|-----------------------------|


  C5        D5           E5
                     ~~~~~~~~~~~~~~~~~~~~~~~~~~~~
   Q    Q    E  Q    E    +H..              +E
|----------------------|-------------------------|
|-13---13---12-10---12-|-(12)--------------(12)\-|
|----------------------|-------------------------|
|----------------------|-------------------------|
|----------------------|-------------------------|
|----------------------|-------------------------|
|
|  E E  E E  E  E E  E     E   E E E E E E   E
|----------------------|-------------------------|
|----------------------|-------------------------|
|----------------------|-------------------------|
|--5-5--5-5--7--7-7--7-|---9---9-9-9-9-9-9---9---|
|--3-3--3-3--5--5-5--5-|---7---7-7-7-7-7-7---7---|
|----------------------|-------------------------|


  Dsus2             Esus2             Csus2 Bsus2   Asus2
   ~~~~~
   H..               E      E  q       q       Q.
|-12----------------14----|---10-------9-------7--------|
|-15b17-------------17b19-|---13b15---12b14---10b12-----|
|-------------------------|-----------------------------|
|-------------------------|-----------------------------|
|-------------------------|-----------------------------|
|-------------------------|-----------------------------|
|
|  E    E E E E E E  E      E  E    E  E    E  E    E E
|-------------------------|-----------------------------|
|-------------------------|-----------------------------|
|-------------------------|-----------------------------|
|--9----9-9-9-9-9-9--9----|-9--9----9--9----9--9----9-9-|
|--7----7-7-7-7-7-7--7----|-7--7----7--7----7--7----7-7-|
|-------------------------|-----------------------------|


  C5        D5           E5
                     ~~~~~~~~~~~~~~~~~~~~~~~~~~~~
   Q    Q    E  Q    E    +H..              +E
|----------------------|-------------------------|
|-13---13---12-10---12-|-(12)--------------(12)\-|
|----------------------|-------------------------|
|----------------------|-------------------------|
|----------------------|-------------------------|
|----------------------|-------------------------|
|
|  E E  E E  E  E E  E     E   E E E E E E   E
|----------------------|-------------------------|
|----------------------|-------------------------|
|----------------------|-------------------------|
|--5-5--5-5--7--7-7--7-|---9---9-9-9-9-9-9---9---|
|--3-3--3-3--5--5-5--5-|---7---7-7-7-7-7-7---7---|
|----------------------|-------------------------|


  Dsus2             Esus2             Csus2 Bsus2   Asus2
  Gtr I
   ~~~~~
   H..               E      E  q       q       Q.
|-12----------------14----|---10-------9-------7--------|
|-15b17-------------17b19-|---13b15---12b14---10b12-----|
|-------------------------|-----------------------------|
|-------------------------|-----------------------------|
|-------------------------|-----------------------------|
|-------------------------|-----------------------------|
|
| Gtr II
|  PM-------------------------------------------------|
|  E    E E E E E E  E      E  E    E  E    E  E    E E
|-------------------------|-----------------------------|
|-------------------------|-----------------------------|
|-------------------------|-----------------------------|
|-------------------------|-----------------------------|
|--2----2-2-2-2-2-2--2----|-2--2----2--2----2--2----2-2-|
|--2----2-2-2-2-2-2--2----|-2--2----2--2----2--2----2-2-|


  C5        D5           E5
                     ~~~~~~~~~~~~~~~~~~~~~~~~~~~~
   Q    Q    E  Q    E    +H..              +E
|----------------------|-------------------------|
|-13---13---12-10---12-|-(12)--------------(12)\-|
|----------------------|-------------------------|
|----------------------|-------------------------|
|----------------------|-------------------------|
|----------------------|-------------------------|
|
|  E E  E E  E  E E  E     E   E E E E E E   E
|----------------------|-------------------------|
|----------------------|-------------------------|
|----------------------|-------------------------|
|--5-5--5-5--7--7-7--7-|---9---9-9-9-9-9-9---9---|
|--3-3--3-3--5--5-5--5-|---7---7-7-7-7-7-7---7---|
|----------------------|-------------------------|


  Dsus2             Esus2     Csus2   Bsus2   Asus2
   ~~~~~
   H..               E      E  q       q       Q.
|-12----------------14----|---15------17------19--------|
|-15b17-------------17b19-|---18b20---20b22---22b24-----|
|-------------------------|-----------------------------|
|-------------------------|-----------------------------|
|-------------------------|-----------------------------|
|-------------------------|-----------------------------|
|
|  PM-------------------------------------------------|
|  E    E E E E E E  E      E  E    E  E    E  E    E E
|-------------------------|-----------------------------|
|-------------------------|-----------------------------|
|-------------------------|-----------------------------|
|-------------------------|-----------------------------|
|--2----2-2-2-2-2-2--2----|-2--2----2--2----2--2----2-2-|
|--2----2-2-2-2-2-2--2----|-2--2----2--2----2--2----2-2-|


  C5      D5        E5
  Q   Q   E Q   E   +W
|-----------------|-------------------|
|-8---7-----------|-------------------|
|---------9-7---9-|-(9)---------------|
|-----------------|-------------------|
|-----------------|-------------------|
|-----------------|-------------------|
|
| E E E E E E E E    E  E E E E E E E
|-----------------|-------------------|
|-----------------|-------------------|
|-----------------|-------------------|
|-5-5-5-5-7-7-7-7-|--9--9-9-9-9-9-9-9-|
|-3-3-3-3-5-5-5-5-|--7--7-7-7-7-7-7-7-|
|-----------------|-------------------|


 Interlude
  Gtr IV
  E E E E E E E E   E E E E E E E E    E E       E      E   E  E       E      E
|-----------------|-----------------|-------------------------------------------|
|-----------------|-----------------|-------------------------------------------|
|-----------------|-----------------|-------------------------------------------|
|-7---7---7---7---|-9---9---9---9---|-10--------10---------10---------10--------|
|---0---0---0---0-|---0---0---0---0-|----0--------------0------0--------------0-|
|-----------------|-----------------|-------------------------------------------|
|
| Gtr V
|                                      |------3------|      |------3-------|
| W                 W                  q     q       q      q      q       q
|-----------------|-----------------|-20---(20)----(20)---(20)---(20)----(20)---|
|-----------------|-----------------|-------------------------------------------|
|-----------------|-----------------|-------------------------------------------|
|-----------------|-----------------|-------------------------------------------|
|-----------------|-----------------|-------------------------------------------|
|-----------------|-----------------|-------------------------------------------|


   E E      E      E   E  E      E      E
|------------------------------------------|
|------------------------------------------|
|------------------------------------------|
|--6--------6----------6---------6---------|
|----0-------------0------0-------------0--|
|------------------------------------------|
|
|  |-----3------|      |------3------|
|  q     q      q      q      q      q
|-16---(16)---(16)---(16)---(16)---(16)----|
|------------------------------------------|
|------------------------------------------|
|------------------------------------------|
|------------------------------------------|
|------------------------------------------|


   E E      E      E   E  E      E      E    E E      E      E   E  E      E      E
|-----------------------------------------|-----------------------------------------|
|-----------------------------------------|-----------------------------------------|
|-----------------------------------------|-----------------------------------------|
|--7--------7----------7---------7--------|--9--------9----------9---------9--------|
|----0-------------0------0-------------0-|----0-------------0------0-------------0-|
|-----------------------------------------|-----------------------------------------|
|
|  |-----3------|      |------3------|       |-----3------|      |------3------|
|  q     q      q      q      q      q       q     q      q      q      q      q
|-17---(17)---(17)---(17)---(17)---(17)---|-19---(19)---(19)---(19)---(19)---(19)---|
|-----------------------------------------|-----------------------------------------|
|-----------------------------------------|-----------------------------------------|
|-----------------------------------------|-----------------------------------------|
|-----------------------------------------|-----------------------------------------|
|-----------------------------------------|-----------------------------------------|


   E E       E      E   E  E       E      E    E E      E      E   E  E      E      E
|-------------------------------------------|--------------------------------------------|
|-------------------------------------------|--------------------------------------------|
|-------------------------------------------|--------------------------------------------|
|-10--------10---------10---------10--------|--6--------6----------6---------6-----------|
|----0--------------0------0--------------0-|----0-------------0------0-------------0----|
|-------------------------------------------|--------------------------------------------|
|
|  |------3------|      |------3-------|       |-----3------|      |------3------|
|  q     q       q      q      q       q       q     q      q      q      q      q
|-20---(20)----(20)---(20)---(20)----(20)---|-16---(16)---(16)---(16)---(16)---(16)------|
|-------------------------------------------|--------------------------------------------|
|-------------------------------------------|--------------------------------------------|
|-------------------------------------------|--------------------------------------------|
|-------------------------------------------|--------------------------------------------|
|-------------------------------------------|--------------------------------------------|


     E E      E      E   E  E      E      E    E E      E      E   E  E      E      E
||------------------------------------------|-----------------------------------------|
||o-----------------------------------------|-----------------------------------------|
||------------------------------------------|-----------------------------------------|
||---7--------7----------7---------7--------|--9--------9----------9---------9--------|
||o----0-------------0------0-------------0-|----0-------------0------0-------------0-|
||------------------------------------------|-----------------------------------------|
|
|    |-----3------|      |------3------|       |-----3------|      |------3------|
|    q     q      q      q      q      q       q     q      q      q      q      q
||--17---(17)---(17)---(17)---(17)---(17)---|-19---(19)---(19)---(19)---(19)---(19)---|
||o-----------------------------------------|-----------------------------------------|
||------------------------------------------|-----------------------------------------|
||------------------------------------------|-----------------------------------------|
||o-----------------------------------------|-----------------------------------------|
||------------------------------------------|-----------------------------------------|
|
|   Gtr II
|    ~~~~~~~~~~~~~~~~~~~~~~~~~~~~~~~~~~~~~~~~~~~~~~~~~~~~~~~~~~~~~~~~~~~~~~~~~~~~~~~~~~
|    W                                         W
||--17--------------------------------------|-15--------------------------------------|
||o-----------------------------------------|-----------------------------------------|
||------------------------------------------|-----------------------------------------|
||------------------------------------------|-----------------------------------------|
||o-----------------------------------------|-----------------------------------------|
||------------------------------------------|-----------------------------------------|


   E  E       E      E   E  E       E         E    E E      E      E   E  E      E      E
|-----------------------------------------------|---------------------------------------------||
|-----------------------------------------------|--------------------------------------------o||
|-----------------------------------------------|---------------------------------------------||
|-10---------10---------10---------10-----------|--6--------6----------6---------6------------||
|-----0--------------0------0-----------------0-|----0-------------0------0-------------0----o||
|-----------------------------------------------|---------------------------------------------||
|
|  |------3-------|      |--------3--------|       |-----3------|      |------3------|
|  q      q       q      q      q          q       q     q      q      q      q      q
|-20----(20)----(20)---(20)---(20)-------(20)---|-16---(16)---(16)---(16)---(16)---(16)-------||
|-----------------------------------------------|--------------------------------------------o||
|-----------------------------------------------|---------------------------------------------||
|-----------------------------------------------|---------------------------------------------||
|-----------------------------------------------|--------------------------------------------o||
|-----------------------------------------------|---------------------------------------------||
|
|                                   \0.5
|~~~~~                                             ~~
|  H.                               Q              W
|-12-------------------------------13-----------|-11------------------------------------------||
|-----------------------------------------------|--------------------------------------------o||
|-----------------------------------------------|---------------------------------------------||
|-----------------------------------------------|---------------------------------------------||
|-----------------------------------------------|--------------------------------------------o||
|-----------------------------------------------|---------------------------------------------||


 Guitar Solo
  D5         E5         F5         C#5
  Gtrs I, II
  W          W          W          W
|----------|----------|----------|------|
|----------|----------|----------|------|
|----------|----------|----------|------|
|----------|----------|----------|-6----|
|-0--------|-2--------|-3--------|-4----|
|-0--------|-2--------|-3--------|------|


  D5         E5         F5         C#5
  W          W          W            W
|----------|----------|----------|--------------------------|
|----------|----------|----------|--------------------------|
|----------|----------|----------|--------------------------|
|----------|----------|----------|---6----------------------|
|-0--------|-2--------|-3--------|---4----------------------|
|-0--------|-2--------|-3--------|--------------------------|
|
| Gtr III
|                                                      ~~
|                                    |--3--|  |--3--|
| W          W          W            E  E  E  E  E  E  H
|----------|----------|----------|-/22-17-------------------|
|----------|----------|----------|--------18----------------|
|----------|----------|----------|-----------19-------------|
|----------|----------|----------|--------------19-15-14----|
|----------|----------|----------|--------------------------|
|----------|----------|----------|--------------------------|


  D5                  E5
   W                   W
|-------------------|-------------------|
|-------------------|-------------------|
|-------------------|-------------------|
|-------------------|-------------------|
|--0----------------|--2----------------|
|--0----------------|--2----------------|
|
|             ~~~~                ~~~~
|  H         +H        H         +H
|-------------------|-------------------|
|-13b15=====(13)----|-15b17=====(15)----|
|-------------------|-------------------|
|-------------------|-------------------|
|-------------------|-------------------|
|-------------------|-------------------|


  F5                  C#5
   W                   W
|-------------------|-------------------|
|-------------------|-------------------|
|-------------------|-------------------|
|-------------------|--6----------------|
|--3----------------|--4----------------|
|--3----------------|-------------------|
|
|             ~~~~                ~~~~
|  H         +H        H         +H
|-------------------|-19b21=====(19)----|
|-16b18=====(16)----|-------------------|
|-------------------|-------------------|
|-------------------|-------------------|
|-------------------|-------------------|
|-------------------|-------------------|


  D5
   W
|-------------------------------------------------|
|-------------------------------------------------|
|-------------------------------------------------|
|-------------------------------------------------|
|--0----------------------------------------------|
|--0----------------------------------------------|
|
|  S  S  S  S  S  S  S  S  S  S  S  S  S  S  S  S
|-24-20----20-------17----20-17----17-------------|
|-------22----22s18----18-------18----18s15-18-15-|
|-------------------------------------------------|
|-------------------------------------------------|
|-------------------------------------------------|
|-------------------------------------------------|


  E5
   W
|-------------------------------------------------|
|-------------------------------------------------|
|-------------------------------------------------|
|-------------------------------------------------|
|--2----------------------------------------------|
|--2----------------------------------------------|
|
|  S  S  S  S  S  S  S  S  S  S  S  S  S  S  S  S
|-17-13-------------------------------------------|
|-------15----------------------------------------|
|----------14-------------------------------------|
|-------------15-------------12-15-14-12----------|
|----------------17-15-12-15-------------15-14-12-|
|-------------------------------------------------|


  F5                                    C#5
   W                                     W
|-------------------------------------|-------------------------------------|
|-------------------------------------|-------------------------------------|
|-------------------------------------|-------------------------------------|
|-------------------------------------|--6----------------------------------|
|--3----------------------------------|--4----------------------------------|
|--3----------------------------------|-------------------------------------|
|
|  |--3--|  |--3--|  |--3--|  |--3--|    |--3--|  |--3--|  |--3--|  |--3--|
|  E  E  E  E  E  E  E  E  E  E  E  E    E  E  E  E  E  E  E  E  E  E  E  E
|-22-22-17-22----17-13-17-------------|-------------------------17----20-17-|
|-------------20----------13-15-------|-------------------18-15----18-------|
|-------------------------------14-17-|-------14-14-19-14-------------------|
|-------------------------------------|-12-15-------------------------------|
|-------------------------------------|-------------------------------------|
|-------------------------------------|-------------------------------------|


  Gtr I
   E    E E E E E E E   E E E E E  E E E   E E E E E E E E   E E E E E  E E E
|---------------------|------------------|-----------------|------------------|
|---------------------|------------------|-----------------|------------------|
|--8----7-7-8-7-7-8-7-|-7-8-7-7-8-10-8-7-|-8-7-7-8-7-7-8-7-|-7-8-7-7-8-10-8-7-|
|--0----0-0-0-0-0-0-0-|-0-0-0-0-0--0-0-0-|-0-0-0-0-0-0-0-0-|-0-0-0-0-0--0-0-0-|
|---------------------|------------------|-----------------|------------------|
|---------------------|------------------|-----------------|------------------|
|
|  W                    W                  W                 W
|-22b24---------------|------------------|-----------------|------------------|
|---------------------|------------------|-----------------|------------------|
|---------------------|------------------|-----------------|------------------|
|---------------------|------------------|-----------------|------------------|
|---------------------|------------------|-----------------|------------------|
|---------------------|------------------|-----------------|------------------|


  E E E E E E E E   E E E E E  E E E   E E E E E E E E   E E E E E  E E E
|-----------------|------------------|-----------------|------------------|
|-----------------|------------------|-----------------|------------------|
|-8-7-7-8-7-7-8-7-|-7-8-7-7-8-10-8-7-|-8-7-7-8-7-7-8-7-|-7-8-7-7-8-10-8---|
|-0-0-0-0-0-0-0-0-|-0-0-0-0-0--0-0-0-|-0-0-0-0-0-0-0-0-|-0-0-0-0-0--0-0---|
|-----------------|------------------|-----------------|------------------|
|-----------------|------------------|-----------------|------------------|
|
| Gtr II
| E E E E E E E E   E E E E E  E E E   E E E E E E E E   E E E E E  E E E
|-----------------|------------------|-----------------|------------------|
|-----------------|------------------|-----------------|------------------|
|-----------------|------------------|-----------------|------------------|
|-----------------|------------------|-----------------|------------------|
|-----------------|------------------|-----------------|------------------|
|-0-0-0-0-0-0-0-0-|-0-0-0-0-0--0-0-0-|-0-0-0-0-0-0-0-0-|-0-0-0-0-0--0-0---|


 Out-Chorus
  Dsus2             Esus2             Csus2 Bsus2   Asus2
   ~~~~~
   H..               E      E  q       q       Q.
|-12----------------14----|---10-------9-------7--------|
|-15b17-------------17b19-|---13b15---12b14---10b12-----|
|-------------------------|-----------------------------|
|-------------------------|-----------------------------|
|-------------------------|-----------------------------|
|-------------------------|-----------------------------|
|
|  E    E E E E E E  E      E  E    E  E    E  E    E E
|-------------------------|-----------------------------|
|-------------------------|-----------------------------|
|-------------------------|-----------------------------|
|--9----9-9-9-9-9-9--9----|-9--9----9--9----9--9----9-9-|
|--7----7-7-7-7-7-7--7----|-7--7----7--7----7--7----7-7-|
|-------------------------|-----------------------------|


  C5        D5           E5
                     ~~~~~~~~~~~~~~~~~~~~~~~~~~~~
   Q    Q    E  Q    E    +H..              +E
|----------------------|-------------------------|
|-13---13---12-10---12-|-(12)--------------(12)\-|
|----------------------|-------------------------|
|----------------------|-------------------------|
|----------------------|-------------------------|
|----------------------|-------------------------|
|
|  E E  E E  E  E E  E     E   E E E E E E   E
|----------------------|-------------------------|
|----------------------|-------------------------|
|----------------------|-------------------------|
|--5-5--5-5--7--7-7--7-|---9---9-9-9-9-9-9---9---|
|--3-3--3-3--5--5-5--5-|---7---7-7-7-7-7-7---7---|
|----------------------|-------------------------|


  Dsus2             Esus2             Csus2 Bsus2   Asus2
   ~~~~~
   H..               E      E  q       q       Q.
|-12----------------14----|---10-------9-------7--------|
|-15b17-------------17b19-|---13b15---12b14---10b12-----|
|-------------------------|-----------------------------|
|-------------------------|-----------------------------|
|-------------------------|-----------------------------|
|-------------------------|-----------------------------|
|
|  E    E E E E E E  E      E  E    E  E    E  E    E E
|-------------------------|-----------------------------|
|-------------------------|-----------------------------|
|-------------------------|-----------------------------|
|--9----9-9-9-9-9-9--9----|-9--9----9--9----9--9----9-9-|
|--7----7-7-7-7-7-7--7----|-7--7----7--7----7--7----7-7-|
|-------------------------|-----------------------------|


  C5        D5           E5
                     ~~~~~~~~~~~~~~~~~~~~~~~~~~~~
   Q    Q    E  Q    E    +H..              +E
|----------------------|-------------------------|
|-13---13---12-10---12-|-(12)--------------(12)\-|
|----------------------|-------------------------|
|----------------------|-------------------------|
|----------------------|-------------------------|
|----------------------|-------------------------|
|
|  E E  E E  E  E E  E     E   E E E E E E   E
|----------------------|-------------------------|
|----------------------|-------------------------|
|----------------------|-------------------------|
|--5-5--5-5--7--7-7--7-|---9---9-9-9-9-9-9---9---|
|--3-3--3-3--5--5-5--5-|---7---7-7-7-7-7-7---7---|
|----------------------|-------------------------|


  Dsus2             Esus2             Csus2 Bsus2   Asus2
   ~~~~~
   H..               E      E  q       q       Q.
|-12----------------14----|---10-------9-------7--------|
|-15b17-------------17b19-|---13b15---12b14---10b12-----|
|-------------------------|-----------------------------|
|-------------------------|-----------------------------|
|-------------------------|-----------------------------|
|-------------------------|-----------------------------|
|
|  PM-------------------------------------------------|
|  E    E E E E E E  E      E  E    E  E    E  E    E E
|-------------------------|-----------------------------|
|-------------------------|-----------------------------|
|-------------------------|-----------------------------|
|-------------------------|-----------------------------|
|--2----2-2-2-2-2-2--2----|-2--2----2--2----2--2----2-2-|
|--2----2-2-2-2-2-2--2----|-2--2----2--2----2--2----2-2-|


  C5        D5           E5
                     ~~~~~~~~~~~~~~~~~~~~~~~~~~~~
   Q    Q    E  Q    E    +H..              +E
|----------------------|-------------------------|
|-13---13---12-10---12-|-(12)--------------(12)\-|
|----------------------|-------------------------|
|----------------------|-------------------------|
|----------------------|-------------------------|
|----------------------|-------------------------|
|
|  E E  E E  E  E E  E     E   E E E E E E   E
|----------------------|-------------------------|
|----------------------|-------------------------|
|----------------------|-------------------------|
|--5-5--5-5--7--7-7--7-|---9---9-9-9-9-9-9---9---|
|--3-3--3-3--5--5-5--5-|---7---7-7-7-7-7-7---7---|
|----------------------|-------------------------|


  Dsus2             Esus2     Csus2   Bsus2   Asus2
   ~~~~~
   H..               E      E  q       q       Q.
|-12----------------14----|---15------17------19--------|
|-15b17-------------17b19-|---18b20---20b22---22b24-----|
|-------------------------|-----------------------------|
|-------------------------|-----------------------------|
|-------------------------|-----------------------------|
|-------------------------|-----------------------------|
|
|  PM-------------------------------------------------|
|  E    E E E E E E  E      E  E    E  E    E  E    E E
|-------------------------|-----------------------------|
|-------------------------|-----------------------------|
|-------------------------|-----------------------------|
|-------------------------|-----------------------------|
|--2----2-2-2-2-2-2--2----|-2--2----2--2----2--2----2-2-|
|--2----2-2-2-2-2-2--2----|-2--2----2--2----2--2----2-2-|


  C5      D5        E5
  Q   Q   E Q   E   +W
|-----------------|-------------------|
|-8---7-----------|-------------------|
|---------9-7---9-|-(9)---------------|
|-----------------|-------------------|
|-----------------|-------------------|
|-----------------|-------------------|
|
| E E E E E E E E    E  E E E E E E E
|-----------------|-------------------|
|-----------------|-------------------|
|-----------------|-------------------|
|-5-5-5-5-7-7-7-7-|--9--9-9-9-9-9-9-9-|
|-3-3-3-3-5-5-5-5-|--7--7-7-7-7-7-7-7-|
|-----------------|-------------------|


  Csus2             Dsus2     Bbsus2  Asus2   Gsus2
   ~~~~~
   H..               E      E  q       q      Q.
|-10----------------12----|----8-------7------5--------|
|-13b15-------------15b17-|---11b13---10b12---8b10-----|
|-------------------------|----------------------------|
|-------------------------|----------------------------|
|-------------------------|----------------------------|
|-------------------------|----------------------------|
|
|  PM------------------------------------------------|
|  E    E E E E E E  E      E  E    E  E    E E    E E
|-------------------------|----------------------------|
|-------------------------|----------------------------|
|-------------------------|----------------------------|
|-------------------------|----------------------------|
|--0----0-0-0-0-0-0--0----|-0--0----0--0----0-0----0-0-|
|--0----0-0-0-0-0-0--0----|-0--0----0--0----0-0----0-0-|


  Bb5       C5          D5
                    ~~~~~~~~~~~~~~~~~~~~~~~~~~~~
   Q    Q    E Q    E    +H..              +E
|---------------------|-------------------------|
|-11---11---10-8---10-|-(10)--------------(10)\-|
|---------------------|-------------------------|
|---------------------|-------------------------|
|---------------------|-------------------------|
|---------------------|-------------------------|
|
|  E E  E E  E E E  E     E   E E E E E E   E
|---------------------|-------------------------|
|---------------------|-------------------------|
|---------------------|-------------------------|
|--3-3--3-3--5-5-5--5-|---7---7-7-7-7-7-7---7---|
|--1-1--1-1--3-3-3--3-|---5---5-5-5-5-5-5---5---|
|---------------------|-------------------------|


  Csus2             Dsus2     Ebsus2  Fsus2   Gsus2
   ~~~~~
   H..               E      E  q       q       Q.
|-10----------------12----|---13------15------17--------|
|-13b15-------------15b17-|---16b18---18b20---20b22-----|
|-------------------------|-----------------------------|
|-------------------------|-----------------------------|
|-------------------------|-----------------------------|
|-------------------------|-----------------------------|
|
|  PM-------------------------------------------------|
|  E    E E E E E E  E      E  E    E  E    E  E    E E
|-------------------------|-----------------------------|
|-------------------------|-----------------------------|
|-------------------------|-----------------------------|
|-------------------------|-----------------------------|
|--0----0-0-0-0-0-0--0----|-0--0----0--0----0--0----0-0-|
|--0----0-0-0-0-0-0--0----|-0--0----0--0----0--0----0-0-|


  Bb5     C5        D5
  Q   Q   E E E E   +W
|-----------------|-------------------|
|-6---6---5-------|-------------------|
|-----------7-5-7-|-(7)---------------|
|-----------------|-------------------|
|-----------------|-------------------|
|-----------------|-------------------|
|
| E E E E E E E E    E  E E E E E E E
|-----------------|-------------------|
|-----------------|-------------------|
|-----------------|-------------------|
|-3-3-3-3-5-5-5-5-|--7--7-7-7-7-7-7-7-|
|-1-1-1-1-3-3-3-3-|--5--5-5-5-5-5-5-5-|
|-----------------|-------------------|


  Bb5        Eb5        D5
  Gtrs I, II
  W          W          W          +W
|----------|----------|----------|--------*|
|----------|----------|----------|--------*|
|----------|----------|----------|--------*|
|-3--------|----------|----------|--------*|
|-1--------|-1--------|-0--------|-(0)----*|
|----------|-1--------|-0--------|-(0)----*|



Duration Legend
---------------
W - whole; H - half; Q - quarter; E - 8th; S - 16th; T - 32nd; X - 64th; a - acciaccatura
+ - note tied to previous; . - note dotted; .. - note double dotted
Uncapitalized letters represent notes that are staccato (1/2 duration)
Irregular groupings are notated above the duration line
Duration letters will always appear directly above the note/fret number it represents the
duration for.  Duration letters with no fret number below them represent rests.  Multi-
bar rests are notated in the form Wxn, where n is the number of bars to rest for.  Low
melody durations appear below the staff

Tablature Legend
----------------
 h   - hammer-on
 p   - pull-off
 b   - bend
 pb  - pre-bend
 r   - bend release (if no number after the r, then release immediately)
 /\  - slide into or out of (from/to "nowhere")
 s   - legato slide
 S   - shift slide
 - natural harmonic
[n]  - artificial harmonic
n(n) - tapped harmonic
 ~   - vibrato
 tr  - trill
 T   - tap
 TP  - trem. picking
 PM  - palm muting
\n/  - tremolo bar dip; n = amount to dip
 \n  - tremolo bar down
 n/  - tremolo bar up
/n\  - tremolo bar inverted dip
 =   - hold bend; also acts as connecting device for hammers/pulls
 <> - volume swell (louder/softer)
 x   - on rhythm slash represents muted slash
 o   - on rhythm slash represents single note slash

Misc Legend
-----------
 |  - bar
||  - double bar
||o - repeat start
o|| - repeat end
*|  - double bar (ending)
 :  - bar (freetime)
 $  - Segno
 &  - Coda
Tempo markers -  = BPM(8/16=s8/s16), where s8 = swing 8ths, s16 = swing 16ths

Tap to rate this tab
# A B C D E F G H I J K L M N O P Q R S T U V W X Y Z