Song name
# A B C D E F G H I J K L M N O P Q R S T U V W X Y Z

Arch Enemy - Intermezzo Liberte tab

Help us improve GuitareTab! Take a short survey!
----------------------------|
---10------8h10--12h8-------|
----------------------------|
----------------------------|
----------------------------|
----------------------------|

----------------------------|
---12b----------10h12-------|
----------------------------|
----------------------------|
----------------------------|
----------------------------|

----------------------------|
-10--------8h10h8--8--------|
----------------------------|
----------------------------|
----------------------------|
----------------------------|

----------------------------|
---5-----5h8---5h8h5--------|
------------------------7---|
----------------------------|
----------------------------|
----------------------------|

----------------------------|
----------------------------|
--7----5h7-----5h7h5--------|
------------------------5---|
----------------------------|
----------------------------|

----------------------------|
----------------------------|
----------------------------|
--7-------------------------|
----------------------------|
------------------3b--------|
Related for Intermezzo Liberte tab