Song name
# A B C D E F G H I J K L M N O P Q R S T U V W X Y Z

Arch Enemy - Damnations Way tab

/---------------------------------------------------------------------------/
/    The following is the author's own interpretation of the song, to be    /
/                     used for private use and studying                     /
/---------------------------------------------------------------------------/


             A R C H  E N E M Y  -  D A M N A T I O N ' S  W A Y
                       From the Album STIGMATA IMPORT
                            Copyright 1998 W.A.R.

                            Version 666 - JAN '05

Transcribed by: Death8699

For Questions, Comments, Newest Version, or Corrections contact
 Death8699: at MethylinInfo@aol.com


..  - palm mute          /  - slide up to
 \  - slide down to      ~  - vibrato
 h  - hammer on          b  - bend
 p  - pull off            Suffixes for bend
                          ph - pinch harmonic
                           f - full bend    h - half bend
*  - see comment           r - release      t - tap bend
X  - percussion mute       ~ - vibrato bend
@  - slight palm mute     () - ghost note, sustained note

Tune Gtr to B [2.5 Steps Down]

--D A M N A T I O N ' S  W A Y--

 |Riff A|
||----------------------||
||----------------------||
||----------4-----------||
||-2--4--5--4--6--5--3--||
||-2--4--5--2--6--5--3--||
||-0--2--3-----4--3--1--||
||                      ||
||----------------------||
||----------------------||
||----------------------||
||----------------------||
||----------2-----------||
||-0--2--3-----4--3--1--||


 |Riff B|
||------------------------------------|------------------------------------||
||------------------------------------|------------------------------------||
||:-----------------------------------|--------------------------6---------||
||:-----------------------------------|------------------------------------||
||----------2----------------3--------|---------2----------------4---------||
||--0--223-----3--2--1--334-----4--3--|-0--223-----3--2--1--334------------||
||  .  ...  .  .  .  .  ...  .  .  .    .  ...  .  .  .  .  ...            ||
||------------------------------------|------------------------------------||
||------------------------------------|------------------------------------||
||:-----------------------------------|--------------------------6---------||
||:-2---------------------------------|--------------------------6---------||
||--2---------------------------------|--------------------------4---------||
||--0---------------------------------|------------------------------------||

 |------------------------------------|------------------------------------|
 |------------------------------------|------------------------------------|
 |------------------------------------|--------------------------6---------|
 |------------------------------------|------------------------------------|
 |----------2----------------3--------|---------2----------------4---------|
 |--0--223-----3--2--1--334-----4--3--|-0--223-----3--2--1--334------------|
 |  .  ...  .  .  .  .  ...  .  .  .    .  ...  .  .  .  .  ...            |
 |------------------------------------|------------------------------------|
 |------------------------------------|------------------------------------|
 |------------------------------------|--------------------------6---------|
 |------------------------------------|--------------------------6---------|
 |----------2----------------3--------|---------2----------------4---------|
 |--0--223-----3--2--1--334-----4--3--|-0--223-----3--2--1--334------------|
    .  ...  .  .  .  .  ...  .  .  .    .  ...  .  .  .  .  ...

 |------------------------------------|------------------------------------|
 |------------------------------------|------------------------------------|
 |------------------------------------|--------------------------6/10------|
 |------------------------------------|------------------------------------|
 |----------2----------------3--------|---------2----------------4/8-------|
 |--0--223-----3--2--1--334-----4--3--|-0--223-----3--2--1--334---sl-------|
 |  .  ...  .  .  .  .  ...  .  .  .    .  ...  .  .  .  .  ...            |
 |------------------------------------|------------------------------------|
 |------------------------------------|------------------------------------|
 |------------------------------------|--------------------------6/10------|
 |------------------------------------|------------------------------------|
 |----------2----------------3--------|---------2----------------4/8-------|
 |--0--223-----3--2--1--334-----4--3--|-0--223-----3--2--1--334---sl-------|
    .  ...  .  .  .  .  ...  .  .  .    .  ...  .  .  .  .  ...

 |------------------------------------|------------------------------------|
 |------------------------------------|------------------------------------|
 |------------------------------------|--------------------------6---------|
 |------------------------------------|------------------------------------|
 |----------2----------------3--------|---------2----------------4---------|
 |--0--223-----3--2--1--334-----4--3--|-0--223-----3--2--1--334------------|
 |  .  ...  .  .  .  .  ...  .  .  .    .  ...  .  .  .  .  ...            |
 |------------------------------------|------------------------------------|
 |------------------------------------|------------------------------------|
 |------------------------------------|--------------------------6---------|
 |------------------------------------|--------------------------6---------|
 |----------2----------------3--------|---------2----------------4---------|
 |--0--223-----3--2--1--334-----4--3--|-0--223-----3--2--1--334------------|
    .  ...  .  .  .  .  ...  .  .  .    .  ...  .  .  .  .  ...

 |------------------------------------|------------------------------------||
 |------------------------------------|------------------------------------||
 |------------------------------------|--------------------------6--------:||
 |------------------------------------|-----------------------------------:||
 |----------2----------------3--------|---------2----------------4---------||
 |--0--223-----3--2--1--334-----4--3--|-0--223-----3--2--1--334------------||
 |  .  ...  .  .  .  .  ...  .  .  .    .  ...                             ||
 |------------------------------------|------------------------------------||
 |------------------------------------|------------------------------------||
 |------------------------------------|--------------------------6--------:||
 |------------------------------------|--------------------------6--------:||
 |----------2----------------3--------|---------2----------------4---------||
 |--0--223-----3--2--1--334-----4--3--|-0--223-----3--2--1--334------------||
    .  ...  .  .  .  .  ...  .  .  .    .  ...


 |Riff C|
||----------------------------------------------------------------------------|
||----------------------------------------------------------------------------|
||:---------------------------------------------------------------------------|
||:------------------------------5--------7--------4--------5-----------------|
||-----------7__8__7__8----------3--------5--------2--------3-----------------|
||--0--000-----h--p--h---0--000-----0--0-----0--0-----0--0-----0--0--5--4--5--|
||  .  ...               .  ...     .  .     .  .     .  .     .  .  .  .  .  |
||----------------------------------------------------------------------------|
||----------------------------------------------------------------------------|
||:---------------------------------------------------------------------------|
||:------------------------------5--------7--------4--------5-----------------|
||-----------7__8__7__8----------3--------5--------2--------3-----------------|
||--0--000-----h--p--h---0--000-----0--0-----0--0-----0--0-----0--0--5--4--5--|
    .  ...               .  ...     .  .     .  .     .  .     .  .  .  .  .

 |----------------------------------------------------------------------------||
 |----------------------------------------------------------------------------||
 |---------------------------------------------------------------------------:||
 |-------------------------------5--------7--------4--------5----------------:||
 |-----------7__8__7__8----------3--------5--------2--------3-----------------||
 |--0--000-----h--p--h---0--000-----0--0-----0--0-----0--0-----0--0--4~-------||
 |  .  ...               .  ...     .  .     .  .     .  .     .  . a.h.      ||
 |----------------------------------------------------------------------------||
 |----------------------------------------------------------------------------||
 |---------------------------------------------------------------------------:||
 |----------6__7__6__7-----------5--------7--------4--------5----------------:||
 |------------h--p--h------------3--------5--------2--------3-----------------||
 |--0--000---------------0--000-----0--0-----0--0-----0--0-----0--0--4~-------||
    .  ...               .  ...     .  .     .  .     .  .     .  . a.h.


Repeat Riff C a total of 1 time.


 |Riff B.1|
||------------------------------------|------------------------------------|
||------------------------------------|------------------------------------|
||:-----------------------------------|--------------------------6---------|
||:-----------------------------------|------------------------------------|
||----------2----------------3--------|---------2----------------4---------|
||--0--223-----3--2--1--334-----4--3--|-0--223-----3--2--1--334------------|
||  .  ...  .  .  .  .  ...  .  .  .    .  ...  .  .  .  .  ...            |
||------------------------------------|------------------------------------|
||------------------------------------|------------------------------------|
||:-----------------------------------|--------------------------6---------|
||:-----------------------------------|--------------------------6---------|
||----------2----------------3--------|---------2----------------4---------|
||--0--223-----3--2--1--334-----4--3--|-0--223-----3--2--1--334------------|
    .  ...  .  .  .  .  ...  .  .  .    .  ...  .  .  .  .  ...

 |------------------------------------|------------------------------------||
 |------------------------------------|------------------------------------||
 |------------------------------------|--------------------------6--------:||
 |------------------------------------|-----------------------------------:||
 |----------2----------------3--------|---------2----------------4---------||
 |--0--223-----3--2--1--334-----4--3--|-0--223-----3--2--1--334--*---------||
 |  .  ...  .  .  .  .  ...  .  .  .    .  ...  .  .  .  .  ...            ||
 |------------------------------------|------------------------------------||
 |------------------------------------|------------------------------------||
 |------------------------------------|--------------------------6--------:||
 |------------------------------------|--------------------------6--------:||
 |----------2----------------3--------|---------2----------------4---------||
 |--0--223-----3--2--1--334-----4--3--|-0--223-----3--2--1--334--*---------||
    .  ...  .  .  .  .  ...  .  .  .    .  ...  .  .  .  .  ...


Repeat Riff B.1 a total of 2 Times [First 2 bars only].


 |Riff D|
||-------------------------------|-------------------------------|
||-------------------------------|-------------------------------|
||:-9----9--7--5----5------------|-5----5--7--9----9-------------|
||:-9----9--7--5----5----5----5--|-5----5--7--9----9---9----9----|
||--7----7--5--3----3----3----3--|-3----3--5--7----7---7----7----|
||--7----7--5--3----3----3----3--|-3----3--5--7----7---7----7----|
||                       .    .                        .    .    |
||-------------------------------|-------------------------------|
||-------------------------------|-------------------------------|
||:-9----9--7--5----5------------|-5----5--7--9----9-------------|
||:-9----9--7--5----5----5----5--|-5----5--7--9----9---9----9----|
||--7----7--5--3----3----3----3--|-3----3--5--7----7---7----7----|
||--7----7--5--3----3----3----3--|-3----3--5--7----7---7----7----|
                         .    .                        .    .

 |-------------------------------|-------------------------------||
 |-------------------------------|-------------------------------||
 |--9----9--7--5----5------------|------------------------------:||
 |--9----9--7--5----5----5----5--|----------2-------------------:||
 |--7----7--5--3----3----3----3--|-3--5--3--2--------------------||
 |--7----7--5--3----3----3----3--|----------0--------------------||
 |                       .    .                                  ||
 |-------------------------------|-------------------------------||
 |-------------------------------|-------------------------------||
 |--9----9--7--5----5------------|------------------------------:||
 |--9----9--7--5----5----5----5--|------------------------------:||
 |--7----7--5--3----3----3----3--|-3--5--3-----------------------||
 |--7----7--5--3----3----3----3--|----------0--------------------||
                         .    .


Repeat Riff D a total of 1 time.


|Riff D.1|
|--------------------------------------|--------------------------------------|
|--------------------------------------|--------------------------------------|
|:-------------------------------------|-------------------------------------:|
|:-------------------------------------|---------------------------------2---:|
|--/10----9--7~---7---\-/7--9--10~---\-|-/10----9--7~---7----\--3--5--3--2----|
|--sl----------------sl-sl-----------sl|-sl------------------sl----------0----|
|                                                                             |
|--------------------------------------|--------------------------------------|
|--------------------------------------|--------------------------------------|
|:-------------------------------------|-------------------------------------:|
|:-------------------------------------|-------------------------------------:|
|--/7-----5--3~---3---\-/3--5--7~----\-|-/7-----5--3~---3----\--3--5--3-------|
|--sl----------------sl-sl-----------sl|-sl------------------sl----------0----|


Play Riff D.1 1 time
Play Riff B   1 time [First 4 bars only]
Play Riff C   2 times
Play Riff B.1 1 time
Play Riff B.1 1 time [First 2 bars only]
Play Riff D   2 times
Play Riff D.1 2 times


 |Fill 1|
||----------------------|-----------------------||
||----------------------|-----------------------||
||:---------------------|----------------------:||
||:---------------------|----------------------:||
||----------------------|-----------------------||
||--5-4-5-4-3-----------|-4-3-4-3-2-------------||
||  . . . . *             . . . . *             ||
||----------------------|-----------------------||
||----------------------|-----------------------||
||:---------------------|----------------------:||
||:---------------------|----------------------:||
||----------------------|-----------------------||
||--5-4-5-4-3-----------|-4-3-4-3-2-------------||
    . . . . *             . . . . *


 |Riff E|
||------------------------|------------------------||
||------------------------|------------------------||
||:-----------------------|-----------------------:||
||:-----------------------|-----------------------:||
||------------------------|------------------------||
||--5--554--3--4--443--2--|-3--332--1--2--221--0---||
||  .  ...  .  .  ...  *    .  ...  .  .  ...  *   ||
||------------------------|------------------------||
||------------------------|------------------------||
||:-----------------------|-----------------------:||
||:-----------------------|-----------------------:||
||------------------------|------------------------||
||--5--554--3--4--443--2--|-3--332--1--2--221--0---||
    .  ...  .  .  ...  *    .  ...  .  .  ...  *


Repeat Riff E a total of 1 time.


 |Riff E.1|
||------------------|------------------||
||------------------|------------------||
||:-----------------|-----------------:||
||:-----------------|-----------------:||
||------------------|------------------||
||--5--554--4--443--|-4--443--3--332---||
||  .  ...  .  ..*    .  ...  .  ..*   ||
||------------------|------------------||
||------------------|------------------||
||:-----------------|-----------------:||
||:-----------------|-----------------:||
||------------------|------------------||
||--5--554--4--443--|-4--443--3--332---||
    .  ...  .  ..*    .  ...  .  ..*


Repeat Riff E.1 a total of 1/2 time.


|Fill 2|
|----------------|----------------|
|----------------|----------------|
|----------------|-9-(9)------/\--|
|--2-(2)---------|-9-(9)------/\--|
|--2-(2)---------|-7-(7)------/\--|
|--0-(0)---------|-7-(7)------/\--|
|                            slsl |
|                                 |
|----------------|----------------|
|----------------|----------------|
|----------------|-9-(9)------/\--|
|--2-(2)---------|-9-(9)------/\--|
|--2-(2)---------|-7-(7)------/\--|
|--0-(0)---------|-7-(7)------/\--|
                             slsl


Play Riff D a total of 2 times.


 |Riff D.2|
||-------------------------------|-------------------------------|
||-------------------------------|-------------------------------|
||:------------------------------|-------------------------------|
||:-5----5--4--2----2----2----2--|-2----2--4--5----5---5----5----|
||--7----7--5--3----3----3----3--|-3----3--5--7----7---7----7----|
||-------------------------------|-------------------------------|
||                       .    .                        .    .    |
||-------------------------------|-------------------------------|
||-------------------------------|-------------------------------|
||:-9----9--7--5----5------------|-5----5--7--9----9-------------|
||:------------------------------|-------------------------------|
||--7----7--5--3----3----3----3--|-3----3--5--7----7---7----7----|
||-------------------------------|-------------------------------|
                         .    .                        .    .

 |-------------------------------|-------------------------------||
 |-------------------------------|-------------------------------||
 |-------------------------------|------------------------------:||
 |--5----5--4--2----2----2----2--|-2--4--2--2-------------------:||
 |--7----7--5--3----3----3----3--|-3--5--3--2--------------------||
 |-------------------------------|----------0--------------------||
 |                       .    .                                  ||
 |-------------------------------|-------------------------------||
 |-------------------------------|-------------------------------||
 |--9----9--7--5----5------------|-5--7--5----------------------:||
 |-------------------------------|------------------------------:||
 |--7----7--5--3----3----3----3--|-3--5--3-----------------------||
 |-------------------------------|----------0--------------------||
                         .    .


Repeat Riff D.2 a total of 1/2 time.


 |Outro|
||-------------------------------|-------------------------------||
||-------------------------------|-------------------------------||
||:------------------------------|------------------------------:||
||:-5----5--4--2----2----2----2--|-2--4--2--2-------------------:||
||--7----7--5--3----3----3----3--|-3--5--3--2--------------------||
||-------------------------------|----------0--------------------||
||                       .    .             *                    ||
||-------------------------------|-------------------------------||
||-------------------------------|-------------------------------||
||:-9----9--7--5----5------------|-5--7--5----------------------:||
||:------------------------------|----------2-------------------:||
||--7----7--5--3----3----3----3--|-3--5--3--2--------------------||
||-------------------------------|----------0--------------------||
                         .    .             *
Tap to rate this tab
 
# A B C D E F G H I J K L M N O P Q R S T U V W X Y Z