Song name
# A B C D E F G H I J K L M N O P Q R S T U V W X Y Z

Arch Enemy - I Will Live Again tab

I Will Live Again - Arch Enemy
I tabbed this by ear and by watching people, it's my first tab so it may not be perfect


Intro
C |---------------------------------------------------------------|
G |-------15-13--------------------13--15-------------------------|
Eb|-------------14-12-----12---15---------14----------------------|
Bb|--/12---------------15-----------------------------------------|
F |---------------------------------------------------------------|
C |---------------------------------------------------------------|

C |---------------------------------------------------------------|
G |---------------------------------------------------------------|
Eb|-----15-13--------------------13--15---------------------------|
Bb|--12-------14-12-----12---15-----------------------------------|
F |------------------15-------------------------------------------|
C |---------------------------------------------------------------|

Verse
C |---------------------------------------------------------------|
G |---------------------------------------------------------------|
Eb|---------------------------------------------------------------| X2
Bb|---------------------------------------------------------------|
F |-----------------------3/5-------------------------------------|
C |--555-5553-5--666-666-----555-555--3-5--111-111---------------|
     ... ... . .  ... ...     ... ...  . .  ... ...

Chorus pt 1
C |---------------------------------------------------------------|
G |---------------------------------------------------------------|
Eb|--9-9--7-7-7---7-7--5-5-5--------------------------------------|
Bb|--x-x--x-x-x---x-x--x-x-x--------------------------------------| X2
F |--7-7--5-5-5---5-5--3-3-3--------------------------------------|
C |----------------------------1-1-1-0----------------------------|
                                     (let open ring)

Chorus pt 2
C |---------------------------------------------------------------|
G |-------15-13--------------------13--15-------------------------|
Eb|-------------14-12-----12---15---------14----------------------|
Bb|--/12---------------15-----------------------------------------|
F |---------------------------------------------------------------|
C |---------------------------------------------------------------|

C |---------------------------------------------------------------|
G |---------------------------------------------------------------|
Eb|-----15-13--------------------13--15---------------------------|
Bb|--12-------14-12-----12---15-----------------------------------|
F |------------------15-------------------------------------------|
C |---------------------------------------------------------------|

Verse
C |---------------------------------------------------------------|
G |---------------------------------------------------------------|
Eb|---------------------------------------------------------------| 
Bb|---------------------------------------------------------------| X2
F |-----------------------3/5-------------------------------------|
C |--555-5553-5--666-666-----555-555--3-5--111-111---------------|
     ... ... . .  ... ...     ... ...  . .  ... ...
 
Chorus pt 1
C |---------------------------------------------------------------|
G |---------------------------------------------------------------|
Eb|--9-9--7-7-7---7-7--5-5-5--------------------------------------|
Bb|--x-x--x-x-x---x-x--x-x-x--------------------------------------| X2
F |--7-7--5-5-5---5-5--3-3-3--------------------------------------|
C |----------------------------1-1-1-0----------------------------|
                                     (let open ring)

Chorus pt 2
C |---------------------------------------------------------------|
G |-------15-13--------------------13--15-------------------------|
Eb|-------------14-12-----12---15---------14----------------------|
Bb|--/12---------------15-----------------------------------------|
F |---------------------------------------------------------------|
C |---------------------------------------------------------------|

C |---------------------------------------------------------------|
G |---------------------------------------------------------------|
Eb|-----15-13--------------------13--15---------------------------|
Bb|--12-------14-12-----12---15-----------------------------------|
F |------------------15-------------------------------------------|
C |---------------------------------------------------------------|

Bridge at 1:58
C |---------------------------------------------------------------|
G |---------------------------------------------------------------|
Eb|------4---------4-------------4--------------------------------|
Bb|----4---------4------5------4----------------------------------|
F |--2---------2-------5-----2------------3-----------------------|
C |--------3~--------3~-----------3~----2---3-2-------------------|

Solo at 2:06 (Chris)
C |---------------------------------------------------------------|
G |---------------------------------------------------------------|
Eb|--4/6-6/7-7/9-9/11---11-9-11-12-11--11-9----9--------7-6-------|
Bb|-----------------------------------------12---12-11------9-8---|
F |---------------------------------------------------------------|
C |---------------------------------------------------------------|

C |--------------------------------9-9-10h9-----------------------|
G |--10B--10B--10B--10B~--------12----------12-11--12-14----------|
Eb|--------------------------11-----------------------------------|
Bb|---------------------------------------------------------------|
F |---------------------------------------------------------------|
C |---------------------------------------------------------------|

Solo at 2:22 (Harmony 1)
C |--14-12-10-10--12-10-9-9--10-9-7-7--6-7-9----------------------|
G |---------------------------------------------------------------|
Eb|---------------------------------------------------------------| X2
Bb|---------------------------------------------------------------|
F |---------------------------------------------------------------|
C |---------------------------------------------------------------|



Solo at 2:22 (Harmony 2)
C |--10-9-7-7--9-7-5-5--7-5-3-3--2-3-5----------------------------|
G |---------------------------------------------------------------|
Eb|---------------------------------------------------------------|
Bb|---------------------------------------------------------------| X2
F |---------------------------------------------------------------|
C |---------------------------------------------------------------|

Clean at 2:40 (let all ring)
C |--------------------------------------5------------------------|
G |-------------------------8--------5------8---------------------|
Eb|--------9-----10---9---7---7-9--7---7--------------------------|
Bb|----7-------7----7---------------------------------------------| X2
F |--5---5--------------------------------------------------------|
C |---------------------------------------------------------------|

Chorus pt 2
C |---------------------------------------------------------------|
G |-------15-13--------------------13--15-------------------------|
Eb|-------------14-12-----12---15---------14----------------------|
Bb|--/12---------------15-----------------------------------------|
F |---------------------------------------------------------------|
C |---------------------------------------------------------------|

C |---------------------------------------------------------------|
G |---------------------------------------------------------------|
Eb|-----15-13--------------------13--15---------------------------|
Bb|--12-------14-12-----12---15-----------------------------------|
F |------------------15-------------------------------------------|
C |---------------------------------------------------------------|

End
C |---------------------------------------------------------------|
G |---------------------------------------------------------------|
Eb|---------------------------------------------------------------|
Bb|--141414---141414----------------------------------------------|
F |--121212---121212----------------------------------------------|
C |---------------------------------------------------------------|
   [triplet] [triplet]

I have no idea what the tab is for Michael's outro solo
Tap to rate this tab
 
# A B C D E F G H I J K L M N O P Q R S T U V W X Y Z