Arch Enemy - No Gods No Masters tab

Hi guys!
this a tab for No gods no master  / Arch Enemy.
this is standard tuning , but if you want to play whole the song , you need to tune drop C.

Enjoy!


E|----------------------------------------------------|
B|----------------------------------------------------|
G|----------------------------------------------------|
D|-5-3-5---5-3-5---5-5--3-5-6-6-6-5-3-----------------|
A|-------3-------3--------------------5-5-6 565--3----|
E|-------------------------------------------------6--|

E|----------------------------------------------------|
B|----------------------------------------------------|
G|---------------------------------5-7^~~-------------|
D|-5-3-5---5-3-5---5-7^--5-3-6-6-6--------------------|
A|-------3-------3------------------------------------|
E|----------------------------------------------------|

E|----------------------------------------------------|
B|-8-6-8---8-6-8---8-8--6-8-9-9-9-8-6-----------------|
G|-------5-------5--------------------7-7-8-787-5-----|
D|------------------------------------------------8---|
A|----------------------------------------------------|
E|----------------------------------------------------|

E|----------------------------------------------------|
B|-8-6-8---8-6-8---8-10^--8-6-9-9-9-11 15^~~----------|
G|-------5-------5------------------------------------|
D|----------------------------------------------------|
A|----------------------------------------------------|
E|----------------------------------------------------|

Thats it!!! enjoy :D  

AKKC-PwNz---_
Tap to rate this tab
 
# A B C D E F G H I J K L M N O P Q R S T U V W X Y Z