Song name
# A B C D E F G H I J K L M N O P Q R S T U V W X Y Z

Arch Enemy - We Are A Godless Entity tab

Arch Enemy - We Are a Godless Entity [Khaos Legions, 2011]


C tuning  - C, F, A#, D#, G, C [from low to high]


== Clean part [from 00:00 to 00:37] ==

C-------------------------|
G-------------------------|
D#------------------------|
A#------------------------|
F----5-----3-----5-----3--|
C--3-----4-----3-----5----|

(and so on)



== Distorted part, guitar #1 [with wah] [from 00:15 to the end] ==

You should easily match the tempo, it's very calm :)

C------------------------------------------|
G------------------------------------------|
D#--8-7---8-8/10-8-7-5---8-7--7h8-7h8p7-5--|
A#-----------------------------------------|
F------------------------------------------|
C------------------------------------------|



C------------------------------------------------|
G------------------------------------------------|
D#--8-7---8-8/10-8-7-5---8-7--10h12-10h12p10--8--|
A#-----------------------------------------------|
F------------------------------------------------|
C------------------------------------------------|



== Distorted part, guitar #2 [with wah] [from 01:03 to the end] ==


C---11-10---11-11/13-11-10-8---11-10--10/11-10h11p10-8--|
G-------------------------------------------------------|
D#------------------------------------------------------|
A#------------------------------------------------------|
F-------------------------------------------------------|
C-------------------------------------------------------|



C---11-10---11-11/13-11-10-8---11-10--13/15-13h15p13-11--|
G--------------------------------------------------------|
D#-------------------------------------------------------|
A#-------------------------------------------------------|
F--------------------------------------------------------|
C--------------------------------------------------------|


== Distorted part, guitar #3 [from 00:41 to the end] ==

I'm not sure about this one, that rhythm part is extremely distorted, so correct me if 
I'm wrong :)

C--------------------------|
G--------------------------|
D#-------------------------|
A#-------------------------|
F---2---2---2---2----------|
C---0---0---0---0----------|

(...and so on)




/ - slide
h - hammer on
p - pull off.
Tap to rate this tab
# A B C D E F G H I J K L M N O P Q R S T U V W X Y Z