Song name
# A B C D E F G H I J K L M N O P Q R S T U V W X Y Z

Arch Enemy - Thorns In My Flesh tab

*Note: This is very little but I wanted to submit it in hopes someone else could pick up 
from where I left off.
By the way, I have a recording of the melody on my profile so you can hear how it should go*

Artist  :   Arch Enemy
Song    :   Thorns in My Flesh
Album   :   Khaos Legions
Year    :   2011

.........................
Legend:                 .
                        .
h   hammer on           .
p   pull off            .
\   slide down          .
/   slide up            .
.........................

Tune all guitars down to C (C,F,A#,D#,G,C)


 Verse:
|--------------------------------|
|--------------------------------|
|--------------------7---6--55---|
|--------------------7---6--55---|
|------5/7----8\7----5---4--33---|
|---0--3/5--0-6\5--0---0---------|


 Chorus:
|------------------------------------------------------|
|---/5---7-8-10-8-5-5h7--7-8-3-3h5--5-5-7-5-5--4p3-4---|
|------------------------------------------------------|
|------------------------------------------------------|
|------------------------------------------------------|
|------------------------------------------------------|

Tap to rate this tab
# A B C D E F G H I J K L M N O P Q R S T U V W X Y Z