Song name
# A B C D E F G H I J K L M N O P Q R S T U V W X Y Z

Arch Enemy - Sinister Mephisto tab

Help us improve GuitareTab! Take a short survey!
#----------------------------------PLEASE NOTE---------------------------------#
#This file is the author's own work and represents their interpretation of the #
#song. You may only use this file for private study, scholarship, or research. #
#------------------------------------------------------------------------------#

SINISTER MEPHISTO
As recorded by Arch Enemy
(From the 1998 Album STIGMATA)

Transcribed by Jerad Yarborough wordman27@yahoo.com
	

Words and Music by Michael Amott

E5
0 7 9 x x x
	
G
x 10 x 12 x x
	
F#
x 9 x 11 x x
	
G5
3 5 5 x x x

D5/A
5 5 7 x x x
	
A5
5 7 7 x x x
	
B5
x 2 4 x x x
	
E5(type 2)
0 7 9 x x x

C5
x 3 5 x x x
	
B5/F#
2 2 4 x x x

Gtr I (B E A D F# B) - 'Christopher Amott'
Gtr II (B E A D F# B) - 'Michael Amott'
Gtr III (B E A D F# B) - 'Christopher Amott lead'
Gtr IV (B E A D F# B) - 'Michael Amott lead'
Gtr V (B E A D F# B) - 'rhythm harmony'
Gtr VI (B E A D F# B) - 'lead harmonies'

   Intro
    Fast Death Metal Q=204
    N.C.
   4/4
    Gtr I
     PM-------------------------------------------------------------------|
     S  S  S  S S S  S  S S S S S S S S S   S S S S S S S S S S S S S S S S
||----------------------------------------|---------------------------------|
||o---------------------------------------|---------------------------------|
||----------------------------------------|---------------------------------|
||----------------------------------------|---------------------------------|
||o---------------------------------------|-------------------------5-5-7-7-|
||---8--8--8--8-5-5--8--8-7-7-7-7-4-4-7-7-|-5-5-5-5-5-5-5-5-5-5-5-5---------|
|
|   Gtr II
|    PM-------------------------------------------------------------------|
|    S  S  S  S S S  S  S S S S S S S S S   S S S S S S S S S S S S S S S S
||----------------------------------------|---------------------------------|
||o---------------------------------------|---------------------------------|
||----------------------------------------|---------------------------------|
||----------------------------------------|-------------------------7-7-9-9-|
||o-10-10-10-10-7-7-10-10-9-9-9-9-6-6-9-9-|-7-7-7-7-7-7-7-7-7-7-7-7---------|
||----------------------------------------|---------------------------------|


   PM------------------------------------------------------
   S  S  S  S S S  S  S S S S S S S S S   E E E E E E E E
|---------------------------------------|-----------------|
|---------------------------------------|-----------------|
|---------------------------------------|-----------------|
|---------------------------------------|-----------------|
|--8--8--8--8-5-5--8--8-7-7-7-7-4-4-7-7-|-5-5-5-5-5-5-5-5-|
|---------------------------------------|-----------------|
|
|  PM------------------------------------------------------
|  S  S  S  S S S  S  S S S S S S S S S   E E E E E E E E
|---------------------------------------|-----------------|
|---------------------------------------|-----------------|
|---------------------------------------|-----------------|
|-10-10-10-10-7-7-10-10-9-9-9-9-6-6-9-9-|-7-7-7-7-7-7-7-7-|
|---------------------------------------|-----------------|
|---------------------------------------|-----------------|


 -------------------------------------|
   S  S  S  S S S  S  S S S S S S S S S
|-----------------------------------------|
|-----------------------------------------|
|-----------------------------------------|
|-----------------------------------------|
|-----------------------------------------|
|--8--8--8--8-5-5--8--8-7-7-7-7-4-4-7-7---|
|
|-------------------------------------|
|  S  S  S  S S S  S  S S S S S S S S S
|-----------------------------------------|
|-----------------------------------------|
|-----------------------------------------|
|-----------------------------------------|
|-10-10-10-10-7-7-10-10-9-9-9-9-6-6-9-9---|
|-----------------------------------------|


                                    F5     E5F5G5
  PM----------------------------|      PM|
  S S S S S S S S S S S S S S S S   Q  E E E E Q
|---------------------------------|---------------|
|---------------------------------|---------------|
|---------------------------------|---------------|
|---------------------------------|---------------|
|---------------------------------|-3------2-3-5--|
|-5-5-5-5-5-5-5-5-5-5-5-5-5-5-5-5-|-1--1-1-0-1-3--|
|
| PM----------------------------|      PM|
| S S S S S S S S S S S S S S S S   Q  E E E E Q
|---------------------------------|---------------|
|---------------------------------|---------------|
|---------------------------------|---------------|
|---------------------------------|---------------|
|-7-7-7-7-7-7-7-7-7-7-7-7-7-7-7-7-|-3------2-3-5--|
|---------------------------------|-1--1-1-0-1-3--|


     To Coda
  E5     C5 B5     E5
     PM|
  Q  E E Q  Q      W          +W
|---------------||----------|--------||
|--------------o||----------|--------||
|---------------||----------|--------||
|--------5--4---||----------|--------||
|-2------3--2--o||-2--------|-(2)----||
|-0--0-0--------||-0--------|-(0)----||
|
|    PM|
| Q  E E Q  Q      W          +W
|---------------||----------|--------||
|--------------o||----------|--------||
|---------------||----------|--------||
|--------5--4---||----------|--------||
|-2------3--2--o||-2--------|-(2)----||
|-0--0-0--------||-0--------|-(0)----||


  Moderately Fast Metal Q=188
  E5  E5   F5     E5    F5     N.C.
  Gtr I
  PM|    PM   PM|     PM   PM----|
  E E E  E  E E E E   E  E E E E E Q
|-------------------|--------------------|
|-------------------|--------------------|
|-------------------|--------------7tr8--|
|-----9----10-----9-|---10-----7-8-------|
|-----7-----8-----7-|----8---------------|
|-0-0----0----0-0---|-0----0-0-----------|
|
| Gtr II
| E E H.              W
|-------------------|--------------------|
|-------------------|--------------------|
|-------------------|--------------------|
|-9-----------------|--------------------|
|-7-----------------|--------------------|
|-0-----------------|--------------------|


      E5  F5     E5    F5     N.C.            E5  F5     E5
  PM|   PM   PM|     PM   PM----|         PM|   PM   PM|
  E E E E  E E E E   E  E E E E E Q       E E E E  E E E E
|------------------|--------------------|------------------|
|------------------|--------------------|------------------|
|------------------|--------------7tr8--|------------------|
|-----9---10-----9-|---10-----7-8-------|-----9---10-----9-|
|-----7----8-----7-|----8---------------|-----7----8-----7-|
|-0-0---0----0-0---|-0----0-0-----------|-0-0---0----0-0---|
|
| PM|   PM   PM|     PM   PM----|         PM|   PM   PM|
| E E E E  E E E E   E  E E E E E Q       E E E E  E E E E
|------------------|--------------------|------------------|
|------------------|--------------------|------------------|
|------------------|--------------7tr8--|------------------|
|-----9---10-----9-|---10-----7-8-------|-----9---10-----9-|
|-----7----8-----7-|----8---------------|-----7----8-----7-|
|-0-0---0----0-0---|-0----0-0-----------|-0-0---0----0-0---|


    F5     N.C.              E5  F5     E5
  Gtrs I, II
  PM   PM----|           PM|   PM   PM|
  E  E E E E  E Q        E E E E  E E E E
|----------------------|------------------|
|----------------------|------------------|
|---------------9tr10--|------------------|
|---10-----9-10--------|-----9---10-----9-|
|----8-----------------|-----7----8-----7-|
|-0----0-0-------------|-0-0---0----0-0---|


    F5     N.C.                E5          N.C.
  PM   PM----|         PM----|     PM----|
  E  E E E E E Q       E E E E Q   E E   E E E E E E E E
|--------------------|-----------------|-----------------|
|--------------------|-----------------|-----------------|
|--------------7tr8--|-----------------|-----------------|
|---10-----7-8-------|---------9\------|---7-----------5-|
|----8---------------|---------7\------|-----6-------4---|
|-0----0-0-----------|-0-0-0-0-----0-0-|-0-----5-4-3-----|


      E5  F5     E5    F5     N.C.
  PM|   PM   PM|     PM   PM----|
  E E E E  E E E E   E  E E E E E Q
|------------------|--------------------|
|------------------|--------------------|
|------------------|--------------7tr8--|
|-----9---10-----9-|---10-----7-8-------|
|-----7----8-----7-|----8---------------|
|-0-0---0----0-0---|-0----0-0-----------|


      E5  F5     E5    F5     N.C.
  PM|   PM   PM|     PM   PM----|
  E E E E  E E E E   E  E E E E  E Q
|------------------|----------------------|
|------------------|----------------------|
|------------------|---------------9tr10--|
|-----9---10-----9-|---10-----9-10--------|
|-----7----8-----7-|----8-----------------|
|-0-0---0----0-0---|-0----0-0-------------|


 Intro Lead - Christopher
      E5  F5     E5    F5     N.C.
  Gtr III
  W                  W
|------------------|--------------------|
|------------------|--------------------|
|------------------|--------------------|
|------------------|--------------------|
|------------------|--------------------|
|------------------|--------------------|
|
| Gtrs I, II
| PM|   PM   PM|     PM   PM----|
| E E E E  E E E E   E  E E E E E Q
|------------------|--------------------|
|------------------|--------------------|
|------------------|--------------7tr8--|
|-----9---10-----9-|---10-----7-8-------|
|-----7----8-----7-|----8---------------|
|-0-0---0----0-0---|-0----0-0-----------|


                      E5                                N.C.
                        ~~~~~~~~~~~~
                                           |--3--|
  E  E      +E   +E    +E       +E   +E    S  S  S    E  E  E E  E E  E E
|--------------------------------------------------|----------------------||
|---15b17==(15)-(15)r-(15)b17==(15)-(15)r-13h15p13p|=12-13-12s9h10p9------||
|--------------------------------------------------|-----------------10-9-||
|--------------------------------------------------|----------------------||
|--------------------------------------------------|----------------------||
|--------------------------------------------------|----------------------||
|
| PM------------|                     PM-------------|
| E  E       E    E     Q             E    E          E  E  E E  E E  E E
|--------------------------------------------------|----------------------||
|--------------------------------------------------|----------------------||
|--------------------------------------------------|----------------------||
|-----------------------9\-------------------------|-----7--------------5-||
|-----------------------7\-------------------------|--------6---------4---||
|-0--0-------0----0-------------------0----0-------|--0-------5--4-3------||


 1st Verse
        E5  F5     E5    F5     N.C.
  Gtr I
   PM-|   PM   PM|     PM   PM----|
   E  E E E  E E E E   E  E E E E E Q
|--------------------|--------------------|
|--------------------|--------------------|
|--------------------|--------------7tr8--|
|-------9---10-----9-|---10-----7-8-------|
|-------7----8-----7-|----8---------------|
|--0--0---0----0-0---|-0----0-0-----------|
|
| Gtr II
|  PM-|   PM   PM|     PM   PM----|
|  E  E E E  E E E E   E  E E E E E Q
|--------------------|--------------------|
|--------------------|--------------8tr9--|
|--------------------|----------7-8-------|
|-------9---10-----9-|---10---------------|
|-------7----8-----7-|----8---------------|
|--0--0---0----0-0---|-0----0-0-----------|
|
| Gtr III
|  ~~~
| +W                   W
|--------------------|--------------------|
|--------------------|--------------------|
|-(9)----------------|--------------------|
|--------------------|--------------------|
|--------------------|--------------------|
|--------------------|--------------------|


      E5  F5     E5    F5     N.C.
  PM|   PM   PM|     PM   PM----|
  E E E E  E E E E   E  E E E E  E  Q
|------------------|-----------------------|
|------------------|-----------------------|
|------------------|----------------9tr10--|
|-----9---10-----9-|---10-----9-10---------|
|-----7----8-----7-|----8------------------|
|-0-0---0----0-0---|-0----0-0--------------|
|
| PM|   PM   PM|     PM   PM----|
| E E E E  E E E E   E  E E E E  E  Q
|------------------|-----------------------|
|------------------|---------------10tr11--|
|------------------|----------9-10---------|
|-----9---10-----9-|---10------------------|
|-----7----8-----7-|----8------------------|
|-0-0---0----0-0---|-0----0-0--------------|
|
| W                  W
|------------------|-----------------------|
|------------------|-----------------------|
|------------------|-----------------------|
|------------------|-----------------------|
|------------------|-----------------------|
|------------------|-----------------------|


      E5  F5     E5    F5     N.C.                E5          N.C.
  Gtr I
  PM|   PM   PM|     PM   PM----|         PM----|     PM----|
  E E E E  E E E E   E  E E E E E Q       E E E E Q   E E   E E E E E E E E
|------------------|--------------------|-----------------|-----------------|
|------------------|--------------------|-----------------|-----------------|
|------------------|--------------7tr8--|-----------------|-----------------|
|-----9---10-----9-|---10-----7-8-------|---------9\------|---7-----------5-|
|-----7----8-----7-|----8---------------|---------7\------|-----6-------4---|
|-0-0---0----0-0---|-0----0-0-----------|-0-0-0-0-----0-0-|-0-----5-4-3-----|
|
| Gtr II
| PM|   PM   PM|     PM   PM----|         PM----|     PM----|
| E E E E  E E E E   E  E E E E E Q       E E E E Q   E E   E E E E E E E E
|------------------|--------------------|-----------------|-----------------|
|------------------|--------------8tr9--|-----------------|-----------------|
|------------------|----------7-8-------|-----------------|-----------------|
|-----9---10-----9-|---10---------------|---------9\------|---7-----------5-|
|-----7----8-----7-|----8---------------|---------7\------|-----6-------4---|
|-0-0---0----0-0---|-0----0-0-----------|-0-0-0-0-----0-0-|-0-----5-4-3-----|


      E5  F5     E5    F5     N.C.
  PM|   PM   PM|     PM   PM----|
  E E E E  E E E E   E  E E E E E Q
|------------------|--------------------|
|------------------|--------------------|
|------------------|--------------7tr8--|
|-----9---10-----9-|---10-----7-8-------|
|-----7----8-----7-|----8---------------|
|-0-0---0----0-0---|-0----0-0-----------|
|
| PM|   PM   PM|     PM   PM----|
| E E E E  E E E E   E  E E E E E Q
|------------------|--------------------|
|------------------|--------------8tr9--|
|------------------|----------7-8-------|
|-----9---10-----9-|---10---------------|
|-----7----8-----7-|----8---------------|
|-0-0---0----0-0---|-0----0-0-----------|


      E5  F5     E5    F5     N.C.
  PM|   PM   PM|     PM   PM----|
  E E E E  E E E E   E  E E E E  E  Q
|------------------|-----------------------|
|------------------|-----------------------|
|------------------|----------------9tr10--|
|-----9---10-----9-|---10-----9-10---------|
|-----7----8-----7-|----8------------------|
|-0-0---0----0-0---|-0----0-0--------------|
|
| PM|   PM   PM|     PM   PM----|
| E E E E  E E E E   E  E E E E  E  Q
|------------------|-----------------------|
|------------------|---------------10tr11--|
|------------------|----------9-10---------|
|-----9---10-----9-|---10------------------|
|-----7----8-----7-|----8------------------|
|-0-0---0----0-0---|-0----0-0--------------|


      E5  F5     E5    F5     N.C.                E5          N.C.
  PM|   PM   PM|     PM   PM----|         PM----|     PM----|
  E E E E  E E E E   E  E E E E E Q       E E E E Q   E E   E E E E E E E E
|------------------|--------------------|-----------------|-----------------||
|------------------|--------------------|-----------------|-----------------||
|------------------|--------------7tr8--|-----------------|-----------------||
|-----9---10-----9-|---10-----7-8-------|---------9\------|---7-----------5-||
|-----7----8-----7-|----8---------------|---------7\------|-----6-------4---||
|-0-0---0----0-0---|-0----0-0-----------|-0-0-0-0-----0-0-|-0-----5-4-3-----||
|
| PM|   PM   PM|     PM   PM----|         PM----|     PM----|
| E E E E  E E E E   E  E E E E E Q       E E E E Q   E E   E E E E E E E E
|------------------|--------------------|-----------------|-----------------||
|------------------|--------------8tr9--|-----------------|-----------------||
|------------------|----------7-8-------|-----------------|-----------------||
|-----9---10-----9-|---10---------------|---------9\------|---7-----------5-||
|-----7----8-----7-|----8---------------|---------7\------|-----6-------4---||
|-0-0---0----0-0---|-0----0-0-----------|-0-0-0-0-----0-0-|-0-----5-4-3-----||


   Pre-Chorus
    N.C.
    Gtr I
    PM|    PM|   PM|     PM|   PM|    PM-
    E E  E E E E E E   E E E E E E  E E
||-------------------|------------------|
||o------------------|------------------|
||-------------------|------------------|
||------10-----9-----|-7-----9-----10---|
||o-0-0----0-0---0-0-|---0-0---0-0----0-|
||-------------------|------------------|
|
|   Gtr II
|   PM|    PM|   PM|     PM|   PM|    PM
|   E E  E E E E E E   E E E E E E  E E
||-------------------|------------------|
||o------------------|------------------|
||-------9-----7-----|-5-----7------9---|
||-------------------|------------------|
||o-0-0----0-0---0-0-|---0-0---0-0----0-|
||-------------------|------------------|


  D       F          G5      E5
 ---|   PM|          PM|   PM|   PM|
  E E E E  E E E E   E E E E E E E E
|------------------|-------------------||
|------------------|------------------o||
|-----2------2-----|-----4-----4-------||
|---3------3-------|---5-----5---------||
|-5-----5------3-5-|-7-----7-----7-5--o||
|------------------|-------------------||
|
| H        H         H       H
|------------------|-------------------||
|------------------|------------------o||
|-7-------10-------|-------------------||
|------------------|-------------------||
|-5--------8-------|-5-------2--------o||
|------------------|-3-------0---------||


   Chorus
    F#5                                 D5/A
    Gtr V
                                        ~~~
                          |-3-|
    E E E E E E E E   E E S S S E E E E E
||------------------|---------------------|
||o-----5-----5-----|-5-7-5h7p5s3-5-------|
||--2-6-6-2-6-6-2-6-|-6-7-6h7p6s4-6-6-2-6-|
||--4-7---4-7---4-7-|---------------7-4-7-|
||o-----------------|---------------------|
||------------------|---------------------|
|
|   Gtrs I, II
|   PM--------------------------------|
|   E E E E E E E E   E E E     E E E E E
||------------------|---------------------|
||o-----------------|---------------------|
||------------------|---------------------|
||------------------|-------------------7-|
||o-4-4-4-4-4-4-4-4-|-4-4-4-----4-4-4-4-5-|
||--2-2-2-2-2-2-2-2-|-2-2-2-----2-2-2-2-5-|


                   E5/B        B5/F#
 ~~~~~
  +Q    H.              W
|--------------------|---------------------|
|--------------------|---------------------|
|-(6)----------------|---------------------|
|-(7)----------------|---------------------|
|--------------------|---------------------|
|--------------------|---------------------|
|
|       PM-|     PM          PM
| +E  E E  E E E E E   +E  E E E +E  E E E
|--------------------|---------------------|
|--------------------|---------------------|
|--------------------|---------------------|
|-(7)-7------7-7---9-|-(9)-9---4-(4)-4-4-4-|
|-(5)-5-5--5-5-5-5-7-|-(7)-7-7-2-(2)-2-2-2-|
|-(5)-5-5--5-5-5-5-7-|-(7)-7-7-2-(2)-2-2-2-|


  F#5                                 D5/A
                                      ~~~
                        |-3-|
  E E E E E E E E   E E S S S E E E E E
|-----------------|---------------------|
|-----5-----5-----|-5-7-5h7p5s3-5-------|
|-2-6-6-2-6-6-2-6-|-6-7-6h7p6s4-6-6-2-6-|
|-4-7---4-7---4-7-|---------------7-4-7-|
|-----------------|---------------------|
|-----------------|---------------------|
|
| PM--------------------------------|
| E E E E E E E E   E E E     E E E E E
|-----------------|---------------------|
|-----------------|---------------------|
|-----------------|---------------------|
|-----------------|-------------------7-|
|-4-4-4-4-4-4-4-4-|-4-4-4-----4-4-4-4-5-|
|-2-2-2-2-2-2-2-2-|-2-2-2-----2-2-2-2-5-|


                             D.C. al Coda
                   A5          E/Ab    E
 ~~~~~
  +Q    H.              W
|--------------------|--------------------------||
|--------------------|-------------------------o||
|-(6)----------------|--------------------------||
|-(7)----------------|--------------------------||
|--------------------|-------------------------o||
|--------------------|--------------------------||
|
|       PM-|     PM          PM
| +E  E E  E E E E E   +E  E E E +E  E E +E
|--------------------|--------------------------||
|--------------------|-------------------------o||
|------------------9-|-(9)-9---9-(9)-9-9-(9)\---||
|-(7)-7------7-7---7-|-(7)-7---6-(6)-6-6-(6)\---||
|-(5)-5-5--5-5-5-5-0-|-(0)---0---------7-(7)\--o||
|-(5)-5-5--5-5-5-5---|--------------------------||


          2nd Verse
  &
               E5  F5     E5    F5     N.C.
 2/4      4/4
  Gtrs I, II
           PM|   PM   PM|     PM   PM----|
  H        E E E E  E E E E   E  E E E E E Q
|------||-------------------|--------------------|
|------||o------------------|--------------------|
|------||-------------------|--------------7tr8--|
|------||------9---10-----9-|---10-----7-8-------|
|------||o-----7----8-----7-|----8---------------|
|------||--0-0---0----0-0---|-0----0-0-----------|


      E5  F5     E5    F5     N.C.
  PM|   PM   PM|     PM   PM----|
  E E E E  E E E E   E  E E E E  E Q
|------------------|-----------------------|
|------------------|-----------------------|
|------------------|---------------9tr10---|
|-----9---10-----9-|---10-----9-10---------|
|-----7----8-----7-|----8------------------|
|-0-0---0----0-0---|-0----0-0--------------|


      E5  F5     E5    F5     N.C.                E5          N.C.
  PM|   PM   PM|     PM   PM----|         PM----|     PM----|
  E E E E  E E E E   E  E E E E E Q       E E E E Q   E E   E E E E E E E E
|------------------|--------------------|-----------------|------------------||
|------------------|--------------------|-----------------|-----------------o||
|------------------|--------------7tr8--|-----------------|------------------||
|-----9---10-----9-|---10-----7-8-------|---------9\------|---7-----------5--||
|-----7----8-----7-|----8---------------|---------7\------|-----6-------4---o||
|-0-0---0----0-0---|-0----0-0-----------|-0-0-0-0-----0-0-|-0-----5-4-3------||


        E5  F5     E5    F5     N.C.
    Gtr I
    PM|   PM   PM|     PM   PM----|
    E E E E  E E E E   E  E E E E E Q
||-------------------|--------------------|
||o------------------|--------------------|
||-------------------|--------------7tr8--|
||------9---10-----9-|---10-----7-8-------|
||o-----7----8-----7-|----8---------------|
||--0-0---0----0-0---|-0----0-0-----------|
|
|   Gtr II
|   PM|   PM   PM|     PM   PM----|
|   E E E E  E E E E   E  E E E E E Q
||-------------------|--------------------|
||o------------------|--------------8tr9--|
||-------------------|----------7-8-------|
||------9---10-----9-|---10---------------|
||o-----7----8-----7-|----8---------------|
||--0-0---0----0-0---|-0----0-0-----------|


      E5  F5     E5    F5     N.C.
  PM|   PM   PM|     PM   PM----|
  E E E E  E E E E   E  E E E E  E  Q
|------------------|------------------------|
|------------------|------------------------|
|------------------|----------------9tr10---|
|-----9---10-----9-|---10-----9-10----------|
|-----7----8-----7-|----8-------------------|
|-0-0---0----0-0---|-0----0-0---------------|
|
| PM|   PM   PM|     PM   PM----|
| E E E E  E E E E   E  E E E E  E  Q
|------------------|------------------------|
|------------------|---------------10tr11---|
|------------------|----------9-10----------|
|-----9---10-----9-|---10-------------------|
|-----7----8-----7-|----8-------------------|
|-0-0---0----0-0---|-0----0-0---------------|


      E5  F5     E5    F5     N.C.                E5          N.C.
  PM|   PM   PM|     PM   PM----|         PM----|     PM----|
  E E E E  E E E E   E  E E E E E Q       E E E E Q   E E   E E E E E E E E
|------------------|--------------------|-----------------|------------------||
|------------------|--------------------|-----------------|-----------------o||
|------------------|--------------7tr8--|-----------------|------------------||
|-----9---10-----9-|---10-----7-8-------|---------9\------|---7-----------5--||
|-----7----8-----7-|----8---------------|---------7\------|-----6-------4---o||
|-0-0---0----0-0---|-0----0-0-----------|-0-0-0-0-----0-0-|-0-----5-4-3------||
|
| PM|   PM   PM|     PM   PM----|         PM----|     PM----|
| E E E E  E E E E   E  E E E E E Q       E E E E Q   E E   E E E E E E E E
|------------------|--------------------|-----------------|------------------||
|------------------|--------------8tr9--|-----------------|-----------------o||
|------------------|----------7-8-------|-----------------|------------------||
|-----9---10-----9-|---10---------------|---------9\------|---7-----------5--||
|-----7----8-----7-|----8---------------|---------7\------|-----6-------4---o||
|-0-0---0----0-0---|-0----0-0-----------|-0-0-0-0-----0-0-|-0-----5-4-3------||


   Pre-Chorus
    $
    N.C.
    PM|    PM|   PM|     PM|   PM|    PM-
    E E  E E E E E E   E E E E E E  E E
||-------------------|------------------|
||o------------------|------------------|
||-------------------|------------------|
||------10-----9-----|-7-----9-----10---|
||o-0-0----0-0---0-0-|---0-0---0-0----0-|
||-------------------|------------------|
|
|   PM|    PM|   PM|     PM|   PM|    PM
|   E E  E E E E E E   E E E E E E  E E
||-------------------|------------------|
||o------------------|------------------|
||-------9-----7-----|-5-----7------9---|
||-------------------|------------------|
||o-0-0----0-0---0-0-|---0-0---0-0----0-|
||-------------------|------------------|


  D       F          G5      E5
 ---|   PM|          PM|   PM|   PM|
  E E E E  E E E E   E E E E E E E E   4x
|------------------|-------------------||
|------------------|------------------o||
|-----2------2-----|-----4-----4-------||
|---3------3-------|---5-----5---------||
|-5-----5------3-5-|-7-----7-----7-5--o||
|------------------|-------------------||
|
| H        H         H       H         4x
|------------------|-------------------||
|------------------|------------------o||
|-7-------10-------|-------------------||
|------------------|-------------------||
|-5--------8-------|-5-------2--------o||
|------------------|-3-------0---------||


   Chorus
    F#5                                 D5/A
    Gtr V
                                        ~~~
                          |-3-|
    E E E E E E E E   E E S S S E E E E E
||------------------|---------------------|
||o-----5-----5-----|-5-7-5h7p5---5-------|
||--2-6-6-2-6-6-2-6-|-6-7-6h7p6-6-6-6-2---|
||--4-7---4-7---4-7-|-----------7---7-4-7-|
||o-----------------|---------------------|
||------------------|---------------------|
|
|   Gtrs I, II
|   PM--------------------------------|
|   E E E E E E E E   E E E     E E E E E
||------------------|---------------------|
||o-----------------|---------------------|
||------------------|---------------------|
||------------------|-------------------7-|
||o-4-4-4-4-4-4-4-4-|-4-4-4-----4-4-4-4-5-|
||--2-2-2-2-2-2-2-2-|-2-2-2-----2-2-2-2-5-|


                   E5/B        B5/F#
 ~~~~~             ~~~~~~~~
  +H        E E  E E   +W
|--------------------|---------------------|
|--------------------|---------------------|
|--------------------|---------------------|
|-(7)-------7h9s11-9-|-(9)-----------------|
|--------------------|---------------------|
|--------------------|---------------------|
|
|       PM|      PM          PM
| +E  E E E E E  E E   +E  E E E +E  E E E
|--------------------|---------------------|
|--------------------|---------------------|
|--------------------|---------------------|
|-(7)-7-----7-7----9-|-(9)-9---4-(4)-4-4-4-|
|-(5)-5-5-5-5-5--5-7-|-(7)-7-7-2-(2)-2-2-2-|
|-(5)-5-5-5-5-5--5-7-|-(7)-7-7-2-(2)-2-2-2-|


  F#5                                 D5/A
                                      ~~~
                        |-3-|
  E E E E E E E E   E E S S S E E E E E
|-----------------|---------------------|
|-----5-----5-----|-5-7-5h7p5---5-------|
|-2-6-6-2-6-6-2-6-|-6-7-6h7p6-6-6-6-2---|
|-4-7---4-7---4-7-|-----------7---7-4-7-|
|-----------------|---------------------|
|-----------------|---------------------|
|
| PM--------------------------------|
| E E E E E E E E   E E E     E E E E E
|-----------------|---------------------|
|-----------------|---------------------|
|-----------------|---------------------|
|-----------------|-------------------7-|
|-4-4-4-4-4-4-4-4-|-4-4-4-----4-4-4-4-5-|
|-2-2-2-2-2-2-2-2-|-2-2-2-----2-2-2-2-5-|


       To Dbl. Coda
                   A5          E/Ab    E
 ~~~~~             ~~~~~~~~~~~~~~~~~~
  +H        E E  E E   +Q.     E +H
|--------------------|--------------------------||
|--------------------|-------------------------o||
|------------------6-|-(6)-----4-(4)------------||
|-(7)-------7h9s11-7-|-(7)-----6-(6)------------||
|--------------------|-------------------------o||
|--------------------|--------------------------||
|
|       PM|      PM          PM
| +E  E E E E E  E E   +E  E E E +E  E E +E
|--------------------|--------------------------||
|--------------------|-------------------------o||
|------------------9-|-(9)-9---9-(9)-9-9-(9)\---||
|-(7)-7-----7-7----7-|-(7)-7---6-(6)-6-6-(6)\---||
|-(5)-5-5-5-5-5--5-0-|-(0)---0---------7-(7)\--o||
|-(5)-5-5-5-5-5--5---|--------------------------||


   Interlude
    E5                                  E5
    Gtr I
                                        PM--|
     E E H.                H         E  E E E    E E H.
||----------------------|---------------------|----------------------|
||o---------------------|---------------------|----------------------|
||----------------------|---------------------|----------------------|
||----------------------|---------------------|----------------------|
||o--2------------------|---------------2-2-2-|--2-------------------|
||---0------------------|---------------0-0-0-|--0-------------------|
|
|   Gtr II
|        PM         PM          PM      PM--|        PM         PM
|    E E E  E +E  E E E   +E  E E E +E  E E E    E E E  E +E  E E  E
||----------------------|---------------------|----------------------|
||o---------------------|---------------------|----------------------|
||----------------------|---------------------|----------------------|
||----------------------|---------0-(0)-------|----------------------|
||o-10p9----7-(7)h9---3-|-(3)h5---0-(0)-------|-10p9----7-(7)h9---12-|
||-------0----------0---|-------0-------0-0-0-|------0----------0----|


  1.                        2.
                  E5        N.C.
                  PM--|
    H          E  E E E      H         E    E  +Q
|------------------------||---------------------------|
|-----------------------o||---------------------------|
|------------------------||---------------------------|
|------------------------||---------------------------|
|-----------------2-2-2-o||---------------------------|
|-----------------0-0-0--||---------------/12-(12)\---|
|
|         PM~~~~~~PM--|           PM~~~~~~  PM------|
|  +E   E E E +E  E E E      E  E E E +E    E   E   E
|------------------------||---------------------------|
|-----------------------o||---------------------------|
|------------------------||---------------------------|
|------------------------||---------------------------|
|-(12)p10---9-(9)-------o||-12p10---9-(9)-------------|
|---------0-------0-0-0--||-------0---------0---0---0-|


    N.C.                         D5/A
         PM        PM          PM      PM--|
     E E E E +E  E E E   +E  E E E +E  E E E
||---------------------|---------------------|
||o--------------------|---------------------|
||---------------------|---------------------|
||---------------------|---------0-(0)-------|
||o-10p9---7-(7)h9---3-|-(3)h5---0-(0)-------|
||-------0---------0---|-------0-------0-0-0-|
|
|        PM        PM          PM      PM--|
|    E E E E +E  E E E   +E  E E E +E  E E E
||---------------------|---------------------|
||o--------------------|---------------------|
||---------------------|---------------------|
||---9p7---5-(5)h7---5-|-(5)h7---0-(0)-------|
||o--------------------|---------0-(0)-------|
||-------0---------0---|-------0-------0-0-0-|


  N.C.
       PM        PM             PM~~~~~~PM--|
   E E E E +E  E E  E    +E   E E E +E  E E E
|---------------------|-------------------------||
|---------------------|------------------------o||
|---------------------|-------------------------||
|---------------------|-------------------------||
|-10p9---7-(7)h9---12-|-(12)p10---9-(9)--------o||
|------0---------0----|---------0-------0-0-0---||
|
|      PM        PM             PM~~~~~~PM--|
|  E E E E +E  E E  E    +E   E E E +E  E E E
|---------------------|-------------------------||
|---------------------|------------------------o||
|---------------------|-------------------------||
|--9p7---5-(5)h7---10-|-(10)p=9---7-(7)---------||
|---------------------|------------------------o||
|------0---------0----|---------0-------0-0-0---||


 Lead: Christopher
  G F#  F#   G                                       G F#    F#   G
  Gtrs I, II
  E E E E +E E E E   E    E E  E   E  E  E       E   E E   E E +E E E E
  | | | |  | | | |   |    | |  |   |  |  |       |   | |   | |  | | | |
  / / o /  / / o /   /    / /  /   /  /  /       /   / /   o /  / / o /

  Gtr III
                               ~~~~~~~
  W                  Q.       +E  +Q    +S   +S  E   E S S E E  E E E E
|------------------|-------------------------------|--------------------|
|------------------|-------------------------------|------------------7-|
|------------------|-2b4======(2)-(2)---(2)r-(2)p0-|-------0h2--4h7s9---|
|------------------|-------------------------------|-2h4h5--------------|
|------------------|-------------------------------|--------------------|
|------------------|-------------------------------|--------------------|


                        G     F#        F#          G
  E E     E E E E E E    E    E   E      E    +E    E   E      E
  | |     | | | | | |    |    |   |      |     |    |   |      |
  / /     / / / / / /    /    /   o      /     /    /   o      /

              ~
    |-3-|
  E S S S E E H          Q       +S   S  S  S  Q       +S   S  S   S
|---------------------|--------------12--------------------12----(12)-|
|-8-7h8p7-------------|-15b17---(15)----15p12-15b17---(15)----15------|
|---------9-7-9-------|-----------------------------------------------|
|---------------------|-----------------------------------------------|
|---------------------|-----------------------------------------------|
|---------------------|-----------------------------------------------|


   E    E     E    E     E           E    E     E
   |    |     |    |     |           |    |     |
   /    /     /    /     /           /    /     /

                         ~~~~~~~~~~~~~~~
   |---3---|  |---3---|
   E  E    E  E  E    E  S     +S   +E   +E     E
|-17p12--------------------------------------------|
|---------15p12------------------------------------|
|---------------15p==14-12b15r(12)-(12)-(12)\-/15--|
|--------------------------------------------------|
|--------------------------------------------------|
|--------------------------------------------------|


  G     F#          F#          G           G5
   E     E     E     E    +E     E     E     E
   |     |     |     |     |     |     |     |
   /     /     o     /     /     /     o     /

   S  S  S  S  S  S  S  S  S  S  S  S  S  S  S  S
|-------------------------------------------------|
|-12h15p12----12h15p12----12h15p12----12h15p12----|
|----------15----------15----------15----------15-|
|-------------------------------------------------|
|-------------------------------------------------|
|-------------------------------------------------|


                   D5/A
  +E    E     E    E    +E    E     E    E
   |    |     |    |     |    |     |    |
   /    /     /    /     /    /     /    o

   |---3---|  |---3---|  |---3---|  |---3---|
   E  E    E  E  E    E  E  E    E  E  E    E
|-12h15p==12----15------12-----------------12-|
|------------15------15----15p==12-11s12------|
|---------------------------------------------|
|---------------------------------------------|
|---------------------------------------------|
|---------------------------------------------|


  G      F#         F#      G
    E    E     E    E    +E E E E
    |    |     |    |     | | | |
    /    /     o    /     / / o /

                          ~~
    |---3---|  |---3---|
    E  E    E  E  E    E  H
|-/19p15--------------------------|
|----------17---------------------|
|-------------16s12---------------|
|---------------------14----------|
|------------------------14-------|
|---------------------------------|


                                                G    F#    F#    G
   E    E     E    E     E    E     E    E      E    E  E  E +E   E  E E
   |    |     |    |     |    |     |    |      |    |  |  |  |   |  | |
   /    /     /    /     /    /     /    /      /    /  o  /  /   /  o /

                                    PM-----|               ~~~~~~
   |---3---|  |---3---|  |---3---|  |---3---|
   E  E    E  E  E    E  E  E    E  E  E    E   Q      +E  E +E   E  E E
|---------------------------------------------|--------------------------|
|------------13------12-----------------------|--------------------------|
|----11---12----12------14p12p==11------------|--------------------------|
|-14-------------------------------14-12---10-|-9b10---(9)-9-(9)---------|
|---------------------------------------------|------------------12-10-9-|
|---------------------------------------------|--------------------------|


                              G    F#        F#        G
  Gtrs I, II
   E E      E E E  E   E  E   E     E    E   E    +E    E     E     E
   | |      | | |  |   |  |   |     |    |   |     |    |     |     |
   / /      / / /  /   /  /   /     /    o   /     /    /     o     /

  Gtr III
                ~~~~~~        PM--------------------------|
     |-3--|
   E S  S S E E E +E  +Q      S  S  S S  S S S  S  S S  S  S  S  S  S  S
|---------------------------|--------------------------------------------|
|---------------------------|--------------------------------------------|
|---------------------------|-----------------------------------11-12-14-|
|---------------------------|---------7--------------9-10-12-14----------|
|-10-9h10p9-7-5-7-(7)-(7)---|-7--9-10---10-7-9-10-12---------------------|
|---------------------------|--------------------------------------------|
|
| Gtr VI
|  W                          H.                              S  S  S  S
|---------------------------|--------------------------------------------|
|---------------------------|--------------------------------------------|
|---------------------------|-----------------------------------14-16-17-|
|---------------------------|--------------------------------17----------|
|---------------------------|--------------------------------------------|
|---------------------------|--------------------------------------------|


   E     E     E     E     E    E     E     E
   |     |     |     |     |    |     |     |
   /     /     /     /     /    /     /     /

                           |---3---|
   S  S  S  S  S  S  S  S  E  E    E  S  S  S  S
|------------------------------------14h15p14----|
|-------------------------13-15---17----------17-|
|----11-12-14-16-12-14-16------------------------|
|-14---------------------------------------------|
|------------------------------------------------|
|------------------------------------------------|
|
|                          |---3---|
|  S  S  S  S  S  S  S  S  E  E    E  S  S  S  S
|------------------------------------17h19p17----|
|-------------15----13-15-17-19---20----------20-|
|----14-16-17----16------------------------------|
|-17---------------------------------------------|
|------------------------------------------------|
|------------------------------------------------|


  G     F#         F#   G   G5                 D5/A
   E    E     E    E +E E E E   +E     E   E    q     Q.
   |    |     |    |  | | | |    |     |   |    |
   /    /     o    /  / / o /    /     /   /    /

              ~~~~~                             ~~~~~
   |---3---|
   E  E    E  H.                 Q        +E    q     Q.
|-14-15---17-17b19------------|-17b19====(17)r-17b19-------||
|-----------------------------|----------------------------||
|-----------------------------|----------------------------||
|-----------------------------|----------------------------||
|-----------------------------|----------------------------||
|-----------------------------|----------------------------||
|
|             ~~~~~                             ~~~~~
|  |---3---|
|  E  E    E  H.                 Q        +E    q     Q.
|-17-19---20-20b22------------|-22b24====(22)r-22b24-------||
|-----------------------------|----------------------------||
|-----------------------------|----------------------------||
|-----------------------------|----------------------------||
|-----------------------------|----------------------------||
|-----------------------------|----------------------------||


 Lead: Michael
  Q=174
  E5                    B5C5         E5                     B5C5
  Gtr IV
                                                          ~~
  |--3--| |--3--| |--3--| |--3---|    |--3---|  |--3---|
  E  E  E E  E  E E  E  E E  E   E    E  E   E  E  E   E  H
|-0-(0)-0-0-(0)-0-0-(0)-0-0-(0)--0-|--0-(0)--0--0-(0)--0---------|
|-3s=5--5-5s=7--7-7s=8--8-8s10--10-|-10s12--12-12s15--15-17------|
|----------------------------------|-----------------------------|
|----------------------------------|-----------------------------|
|----------------------------------|-----------------------------|
|----------------------------------|-----------------------------|
|
| Gtrs I, II
| |--3--| |--3--| |--3--|             |--3---|  |--3---|  |3|
| E  E  E E  E  E Q     E Q           E  E   E  E  E   E  Q E Q
|----------------------------------|-----------------------------|
|----------------------------------|-----------------------------|
|----------------------------------|-----------------------------|
|-9---------------9-----4s5--------|--9-------------------9-4s5--|
|-7--7--7-7--7--7-7-----2s3--------|--7--7---7--7--7---7--7-2s3--|
|-0--0--0-0--0--0-0----------------|--0--0---0--0--0---0--0------|


  E5                               B5C5
                             ~~~~~~~~~~~~~
   Q          +E     +E      Q        +E   +E
|-17b19======(17)---(17)r---17b19====(17)-(17)r\-|
|------------------------------------------------|
|------------------------------------------------|
|------------------------------------------------|
|------------------------------------------------|
|------------------------------------------------|
|
|  |---3---|   |----3-----|  |--3--|
|  E     E E   E  E       E  Q     E   Q
|------------------------------------------------|
|------------------------------------------------|
|------------------------------------------------|
|--9-------------------------9-----4s==5---------|
|--7-----7-7---7--7-------7--7-----2s==3---------|
|--0-----0-0---0--0-------0--0-------------------|


  A5                     B5      E5                      B5 C5
                          ~~      PM---------------------|
   |---3----|  |---3---|          |--3--|  |--3--|  |--3--|  |--3--|
   S  S  E  E  E   E   E  H       E  E  E  E  E  E  E  E  E  E  E  E
|-14h15p14----14-(14)----------|-------------------------------------|
|----------18-----15-----------|-------------------------------------|
|---------------------16-11----|----------------------------12h14----|
|------------------------------|-------------------13-14-16-------16-|
|------------------------------|----------12-13-14-------------------|
|------------------------------|-12-14-15----------------------------|
|
|                                 |--3--|  |--3--|  |--3--|
|  H                      H       E  E  E  E  E  E  Q     E  Q
|------------------------------|-------------------------------------|
|------------------------------|-------------------------------------|
|------------------------------|-------------------------------------|
|------------------------------|--9-----------------9-----4s=5-------|
|--7----------------------9----|--7--7--7--7--7--7--7-----2s=3-------|
|--5----------------------7----|--0--0--0--0--0--0--0----------------|


  E5                      B5C5
                        ~~~~~~~~~
   |---3----|  |--3--|
   E  S  S  E  E  E  E  Q    +E   +E
|--------------------------------------|
|--------------------------------------|
|-11h12p11----11-----------------------|
|----------14----12h14-14---(14)-(14)\-|
|--------------------------------------|
|--------------------------------------|
|
|  |---3----|  |--3--|  |3|
|  E  E     E  E  E  E  Q E   Q
|--------------------------------------|
|--------------------------------------|
|--------------------------------------|
|--9--------------------9-4s==5--------|
|--7--7-----7--7--7--7--7-2s==3--------|
|--0--0-----0--0--0--0--0--------------|


  E5                               B5C5
                              ~~~~~
   Q          +E      S    S  H
|---------------------------------------|
|-15b17======(15)r---15p==12-15b17------|
|---------------------------------------|
|---------------------------------------|
|---------------------------------------|
|---------------------------------------|
|
|  |---3---|   |---3----|     |-3--|
|  E     E E   E   E    E     Q    E Q
|---------------------------------------|
|---------------------------------------|
|---------------------------------------|
|--9--------------------------9----4s5--|
|--7-----7-7---7---7----7-----7----2s3--|
|--0-----0-0---0---0----0-----0---------|


    A5       B5      E5             B5C5
              ~~
     |--3--|         |---3----|   |--3--|
  a  Q  Q  Q  H      Q   Q    Q   Q Q   Q
|------------------|-----------------------|
|------------------|-7---8---10---8-7------|
|-9s11-12-14-12----|--------------------9--|
|------------------|-----------------------|
|------------------|-----------------------|
|------------------|-----------------------|
|
|                    |-3-| |-3--| |3|
|    H        H      E E E E  E E Q E Q
|------------------|-----------------------|
|------------------|-----------------------|
|------------------|-----------------------|
|------------------|-9------------9-4s5----|
|----7--------9----|-7-7-7-7--7-7-7-2s3----|
|----5--------7----|-0-0-0-0--0-0-0--------|


  E5               B5C5   E5                            B5C5   A5       B5
                 ~                                   ~~~~                ~~
  |----3-----|                         |----3----|              |--3--|
  Q   Q   a  Q   H         Q          +E   +E    E  +H          Q  Q  Q  H
|-----------------------|------------------------------------|----------------|
|-----------------------|-15b17======(15)-(15)r-15-(15)------|-12s13----------|
|-7---9---9s11---9------|------------------------------------|-------14-14----|
|-----------------------|------------------------------------|----------------|
|-----------------------|------------------------------------|----------------|
|-----------------------|------------------------------------|----------------|
|
| |-3-| |--3---| |3|       |---3---|   |----3----|   |3-|
| E E E E    E E Q E Q     E     E E   E    E    E   Q  E Q     H        H
|-----------------------|------------------------------------|----------------|
|-----------------------|------------------------------------|----------------|
|-----------------------|------------------------------------|----------------|
|-9--------------9-4s5--|--9-------------------------9--4s5--|----------------|
|-7-7-7-7----7-7-7-2s3--|--7-----7-7---7----7----7---7--2s3--|--7--------9----|
|-0-0-0-0----0-0-0------|--0-----0-0---0----0----0---0-------|--5--------7----|


  E5                                             B5   C5
   |-------5-------|  |-------5-------|                |-----5-----|
   S  S    S  S    S  S  S    S  S    S  S  S  S    S  S  S  S  S  S
|-12-14---15-12---14-15-12---14-15---17-14-15-17---14-15-17-14-15-17-|
|--------------------------------------------------------------------|
|--------------------------------------------------------------------|
|--------------------------------------------------------------------|
|--------------------------------------------------------------------|
|--------------------------------------------------------------------|
|
|  |-----3------|     |-----3------|     |---3---|
|  E    E       E     E    E       E     Q       E     Q
|--------------------------------------------------------------------|
|--------------------------------------------------------------------|
|--------------------------------------------------------------------|
|--9-------------------------------------9-------4s====5-------------|
|--7----7-------7-----7----7-------7-----7-------2s====3-------------|
|--0----0-------0-----0----0-------0-----0---------------------------|


  E5                                  B5C5
                                    ~~
   |--3--|
   S  S  S  S    S  S  S    S    S  H
|-14-15-17-14---15-17-19---15---17-19------|
|------------------------------------------|
|------------------------------------------|
|------------------------------------------|
|------------------------------------------|
|------------------------------------------|
|
|  |----3-----|     |----3----|     |3|
|  E     E    E     E    E    E     Q E Q
|------------------------------------------|
|------------------------------------------|
|------------------------------------------|
|--9--------------------------------9-4s5--|
|--7-----7----7-----7----7----7-----7-2s3--|
|--0-----0----0-----0----0----0-----0------|


  E5                          B5C5   A5       B5       C5/G
  Gtr II
                            ~~                 ~~
                                      |--3--|          |--3--|  |--3--|
   Q          +E     +E     H         Q  Q  Q  H       Q  Q  Q  Q  Q  Q
|-22b24======(22)r==(22)---22------|----17-----------|--------------------|
|----------------------------------|-20----20--------|--------------------|
|----------------------------------|----------19-----|---12-12-12-11--9---|
|----------------------------------|-----------------|--------------------|
|----------------------------------|-----------------|--------------------|
|----------------------------------|-----------------|--------------------|
|
| Gtr VI
|                                                      |--3--|  |--3--|
|  W                                  W                Q  Q  Q  Q  Q  Q
|----------------------------------|-----------------|--------------------|
|----------------------------------|-----------------|--------------------|
|----------------------------------|-----------------|---16-16-16-14-12---|
|----------------------------------|-----------------|--------------------|
|----------------------------------|-----------------|--------------------|
|----------------------------------|-----------------|--------------------|
|
| Gtrs I, II
|  |---3---|   |----3----|  |3|
|  E     E E   E  E      E  Q E Q     H        H       W
|----------------------------------|-----------------|--------------------|
|----------------------------------|-----------------|--------------------|
|----------------------------------|-----------------|--------------------|
|--9------------------------9-4s5--|-----------------|-5------------------|
|--7-----7-7---7--7------7--7-2s3--|--7--------9-----|-3------------------|
|--0-----0-0---0--0------0--0------|--5--------7-----|-3------------------|


  D5/A                    E5             B5C5
                           ~~
  |--3--|  |--3--|
  Q  Q  Q  Q  Q  Q      a  W
|--------------------|------------------------|
|--------------------|------------------------|
|---12-12-12-11--7---|--7s=9------------------|
|--------------------|------------------------|
|--------------------|------------------------|
|--------------------|------------------------|
|
|                          ~~
| |--3--|  |--3--|
| Q  Q  Q  Q  Q  Q      a  W
|--------------------|------------------------|
|--------------------|------------------------|
|---16-16-16-14-11---|-11s12------------------|
|--------------------|------------------------|
|--------------------|------------------------|
|--------------------|------------------------|
|
|                          |-3-| |-3-| |3|
| W                        E E E E E E Q E Q
|--------------------|------------------------|
|--------------------|------------------------|
|--------------------|------------------------|
|-7------------------|-----9-----------9-4s5--|
|-5------------------|-----7-7-7-7-7-7-7-2s3--|
|-5------------------|-----0-0-0-0-0-0-0------|


  E5                                    B5C5
                           ~~~~~~~~~~~~~~~~~~~~
   E       +S    S  S S    E        +Q     +E   +E
|-------------------------10b12====(10)---(10)-(10)r-|
|-10b12---(10)p==8-10p8------------------------------|
|----------------------------------------------------|
|----------------------------------------------------|
|----------------------------------------------------|
|----------------------------------------------------|
|
|  W
|----------------------------------------------------|
|----------------------------------------------------|
|----------------------------------------------------|
|----------------------------------------------------|
|----------------------------------------------------|
|----------------------------------------------------|
|
|  |-----3-----|    |-----3------|   |3-|
|  E    E      E    E   E        E   Q  E   Q
|----------------------------------------------------|
|----------------------------------------------------|
|----------------------------------------------------|
|--9---------------------------------9--4s==5--------|
|--7----7------7----7---7--------7---7--2s==3--------|
|--0----0------0----0---0--------0---0---------------|


  C5/G                 D5/A
  |--3--|  |--3--|     |--3--|  |--3--|
  Q  Q  Q  Q  Q  Q     Q  Q  Q  Q  Q  Q
|---15-15-15-14------|---15-15-15-14-12---|
|---------------17---|--------------------|
|--------------------|--------------------|
|--------------------|--------------------|
|--------------------|--------------------|
|--------------------|--------------------|
|
| |--3--|  |--3--|     |--3--|  |--3--|
| Q  Q  Q  Q  Q  Q     Q  Q  Q  Q  Q  Q
|---19-19-19-17-15---|---19-19-19-17-15---|
|--------------------|--------------------|
|--------------------|--------------------|
|--------------------|--------------------|
|--------------------|--------------------|
|--------------------|--------------------|
|
| W                    W
|--------------------|--------------------|
|--------------------|--------------------|
|--------------------|--------------------|
|-5------------------|-7------------------|
|-3------------------|-5------------------|
|-3------------------|-5------------------|


  B5
  W                            +H            +E  Q.
|----------------------------|------------------------||
|----------------------------|------------------------||
|-2b4------------------------|-(2)-----------(2)------||
|----------------------------|------------------------||
|----------------------------|------------------------||
|----------------------------|------------------------||
|
| W                            +H            +E  Q.
|----------------------------|------------------------||
|----------------------------|------------------------||
|-9b11-----------------------|-(9)-----------(9)------||
|----------------------------|------------------------||
|----------------------------|------------------------||
|----------------------------|------------------------||
|
| PM---------------------------------------|
| |--3---| |-3-| |-3-| |-3-|    |-3--| |-3-|
| E    E E E E E E E E E E E    E  E E E E E  E  Q.
|----------------------------|------------------------||
|----------------------------|------------------------||
|----------------------------|------------------------||
|----------------------------|----------------4-------||
|-2----2-2-2-2-2-2-2-2-2-2-2-|--2--2-2-2-2-2--2-------||
|----------------------------|------------------------||


   Intro repeat
    Q=204
    N.C.
    Gtr I
     PM-------------------------------------------------------------------|
     S  S  S  S S S  S  S S S S S S S S S   S S S S S S S S S S S S S S S S
||----------------------------------------|----------------------------------|
||o---------------------------------------|----------------------------------|
||----------------------------------------|----------------------------------|
||----------------------------------------|----------------------------------|
||o---------------------------------------|-------------------------5-5-7-7--|
||---8--8--8--8-5-5--8--8-7-7-7-7-4-4-7-7-|-5-5-5-5-5-5-5-5-5-5-5-5----------|
|
|   Gtr II
|    PM-------------------------------------------------------------------|
|    S  S  S  S S S  S  S S S S S S S S S   S S S S S S S S S S S S S S S S
||----------------------------------------|----------------------------------|
||o---------------------------------------|----------------------------------|
||----------------------------------------|----------------------------------|
||----------------------------------------|-------------------------7-7-9-9--|
||o-10-10-10-10-7-7-10-10-9-9-9-9-6-6-9-9-|-7-7-7-7-7-7-7-7-7-7-7-7----------|
||----------------------------------------|----------------------------------|


   PM------------------------------------------------------
   S  S  S  S S S  S  S S S S S S S S S   E E E E E E E E
|---------------------------------------|-----------------|
|---------------------------------------|-----------------|
|---------------------------------------|-----------------|
|---------------------------------------|-----------------|
|--8--8--8--8-5-5--8--8-7-7-7-7-4-4-7-7-|-5-5-5-5-5-5-5-5-|
|---------------------------------------|-----------------|
|
|  PM------------------------------------------------------
|  S  S  S  S S S  S  S S S S S S S S S   E E E E E E E E
|---------------------------------------|-----------------|
|---------------------------------------|-----------------|
|---------------------------------------|-----------------|
|-10-10-10-10-7-7-10-10-9-9-9-9-6-6-9-9-|-7-7-7-7-7-7-7-7-|
|---------------------------------------|-----------------|
|---------------------------------------|-----------------|


 -------------------------------------|
   S  S  S  S S S  S  S S S S S S S S S
|-----------------------------------------|
|-----------------------------------------|
|-----------------------------------------|
|-----------------------------------------|
|-----------------------------------------|
|--8--8--8--8-5-5--8--8-7-7-7-7-4-4-7-7---|
|
|-------------------------------------|
|  S  S  S  S S S  S  S S S S S S S S S
|-----------------------------------------|
|-----------------------------------------|
|-----------------------------------------|
|-----------------------------------------|
|-10-10-10-10-7-7-10-10-9-9-9-9-6-6-9-9---|
|-----------------------------------------|


                                             D.S. al Dbl. Coda
                                    F5     E5F5G5   E5     C5 B5
  PM----------------------------|      PM|             PM|
  S S S S S S S S S S S S S S S S   Q  E E E E Q    Q  E E Q  Q
|---------------------------------|---------------|----------------||
|---------------------------------|---------------|---------------o||
|---------------------------------|---------------|----------------||
|---------------------------------|---------------|--------5--4----||
|---------------------------------|-3------2-3-5--|-2------3--2---o||
|-5-5-5-5-5-5-5-5-5-5-5-5-5-5-5-5-|-1--1-1-0-1-3--|-0--0-0---------||
|
| PM----------------------------|      PM|             PM|
| S S S S S S S S S S S S S S S S   Q  E E E E Q    Q  E E Q  Q
|---------------------------------|---------------|----------------||
|---------------------------------|---------------|---------------o||
|---------------------------------|---------------|----------------||
|---------------------------------|---------------|--------5--4----||
|-7-7-7-7-7-7-7-7-7-7-7-7-7-7-7-7-|-3------2-3-5--|-2------3--2---o||
|---------------------------------|-1--1-1-0-1-3--|-0--0-0---------||


 Outro
  Q=188
  &&
  A5        E/A           A5              E/A           A5
  Gtr V
  Q     +E   E  +Q    +E   E    +Q    +E   E  +Q    +E   E
|-----------------------------|-----------------------------|
|-----------------------------|-----------------------------|
|-6-----(6)--4--(4)---(4)--6--|-(6)---(6)--4--(4)---(4)-11--|
|-7-----(7)--6--(6)---(6)--7--|-(7)---(7)--6--(6)---(6)-----|
|-----------------------------|-----------------------------|
|-----------------------------|-----------------------------|
|
| Gtrs I, II
| E +E   E   E  +E  E  E   E    +E  E  E   E  +E  E  E   E
|-----------------------------|-----------------------------|
|-----------------------------|-----------------------------|
|-9-(9)------9--(9)-9------9--|-(9)-9------9--(9)-9------9--|
|-7-(7)------6--(6)-6------7--|-(7)-7------6--(6)-6------7--|
|-0------0--(0)--------0--(0)-|-(0)----0--(0)--------0--(0)-|
|-----------------------------|-----------------------------|


            E/A             F#5
             ~~~~~~~
   +Q     E  E  +H          W
|-------------------------|------------------*|
|-------------------------|------------------*|
|-(11)---11--9--(9)-------|------------------*|
|-------------------------|------------------*|
|-------------------------|------------------*|
|-------------------------|------------------*|
|
|                           PM--------|
|  +E  E  E  E  +E  E E E   E S S E E E Q.
|-------------------------|------------------*|
|-------------------------|------------------*|
|--(9)-9-----9--(9)-9-9---|------------------*|
|--(7)-7-----6--(6)-6-6---|------------------*|
|---------0-(0)-----------|-----------4------*|
|-----------------------x-|-2-2-2-2-2-2------*|



Duration Legend
---------------
W - whole; H - half; Q - quarter; E - 8th; S - 16th; T - 32nd; X - 64th; a - acciaccatura
+ - note tied to previous; . - note dotted; .. - note double dotted
Uncapitalized letters represent notes that are staccato (1/2 duration)
Irregular groupings are notated above the duration line
Duration letters will always appear directly above the note/fret number it represents the
duration for.  Duration letters with no fret number below them represent rests.  Multi-
bar rests are notated in the form Wxn, where n is the number of bars to rest for.  Low
melody durations appear below the staff

Tablature Legend
----------------
 h   - hammer-on
 p   - pull-off
 b   - bend
 pb  - pre-bend
 r   - bend release (if no number after the r, then release immediately)
 /\  - slide into or out of (from/to "nowhere")
 s   - legato slide
 S   - shift slide
 - natural harmonic
[n]  - artificial harmonic
n(n) - tapped harmonic
 ~   - vibrato
 tr  - trill
 T   - tap
 TP  - trem. picking
 PM  - palm muting
\n/  - tremolo bar dip; n = amount to dip
 \n  - tremolo bar down
 n/  - tremolo bar up
/n\  - tremolo bar inverted dip
 =   - hold bend; also acts as connecting device for hammers/pulls
 <> - volume swell (louder/softer)
 x   - on rhythm slash represents muted slash
 o   - on rhythm slash represents single note slash

Misc Legend
-----------
 |  - bar
||  - double bar
||o - repeat start
o|| - repeat end
*|  - double bar (ending)
 :  - bar (freetime)
 $  - Segno
 &  - Coda
Tempo markers -  = BPM(8/16=s8/s16), where s8 = swing 8ths, s16 = swing 16ths

Related for Sinister Mephisto tab