Song name
# A B C D E F G H I J K L M N O P Q R S T U V W X Y Z

Arch Enemy - Beast Of Man tab

#----------------------------------PLEASE NOTE---------------------------------#
#This file is the author's own work and represents their interpretation of the #
#song. You may only use this file for private study, scholarship, or research. #
#------------------------------------------------------------------------------#

BEAST OF MAN
As recorded by Arch Enemy
(From the 1998 Album STIGMATA)

Transcribed by The Foreverlorn
	

Words by Michael Amott Music by Michael Amott/Christopher Amott
Arranged by Michael & Christopher Amott, Peter Wildoer

Gtr I (B E A D F# B) - 'Michael Left'
Gtr II (B E A D F# B) - 'Michael Right'
Gtr III (B E A D F# B) - 'Christopher Left'
Gtr IV (B E A D F# B) - 'Christopher Right'
Gtr V (B E A D F# B) - 'Rhythm'

   Intro
    Q=170
    N.C.
   4/4
    Gtrs I, IV
    PM----------------------------------------------------------------------|
    S S S S S S S S S S S S  S  S  S  S   S S S S S S S S  S  S  S  S S S S S
||--------------------------------------|-------------------------------------|
||o-------------------------------------|-------------------------------------|
||--------------------------------------|-------------------------------------|
||--------------------------------------|-----------------10-10-10-10-9-9-9-9-|
||o-----------------9-9-9-9-10-10-10-10-|-------------------------------------|
||--0-0-0-0-0-0-0-0---------------------|-8-8-8-8-8-8-8-8---------------------|


                                   1.
  N.C.
  Gtr I
  PM-------------------------------------------------------------------
  S S S S S S S S S S S S S S S S   S S S S S S S S S S S S S S S S
|---------------------------------|----------------------------------||
|---------------------------------|---------------------------------o||
|---------------------------------|----------------------------------||
|---------------------------------|----------------------------------||
|---------------------------------|---------------------------------o||
|-6-6-6-6-6-6-6-6-6-6-6-6-6-6-6-6-|-7-7-7-7-7-7-7-7-3-3-3-3-2-2-2-2--||
|
| Gtr IV
| PM-------------------------------------------------------------------
| S S S S S S S S S S S S S S S S   S S S S S S S S S S S S S S S S
|---------------------------------|----------------------------------||
|---------------------------------|---------------------------------o||
|---------------------------------|----------------------------------||
|---------------------------------|----------------------------------||
|---------------------------------|---------------------------------o||
|-6-6-6-6-6-6-6-6-6-6-6-6-6-6-6-6-|-7-7-7-7-7-7-7-7-3-3-3-3-2-2-2-2--||


 2.
 ---------------|   ~~~~~~~~~~~
  S S S S S S S S   Q        Q
|------------------------------------|
|-----------------/12-------15-------|
|------------------------------------|
|------------------------------------|
|------------------------------------|
|-7-7-7-7-7-7-7-7--------------------|
|
|----------------------------------|
| S S S S S S S S   S S S S  S S S S
|------------------------------------|
|------------------------------------|
|------------------------------------|
|------------------------------------|
|------------------------------------|
|-7-7-7-7-7-7-7-7---7-7-7-7--7-7-7-7-|


 Intro Lead: Michael Amott
  N.C.
    ~~~~
    H.                         Q
|----------------------------/15----------|
|-/17-------------------------------------|
|-----------------------------------------|
|-----------------------------------------|
|-----------------------------------------|
|-----------------------------------------|
|
|   PM-------------------------------------
|   S  S S S S S S S S S S S   S  S  S  S
|-----------------------------------------|
|-----------------------------------------|
|-----------------------------------------|
|-----------------------------------------|
|--------------------9-9-9-9--10-10-10-10-|
|---0--0-0-0-0-0-0-0----------------------|


   ~~~~
                                     |--3--|
   H..                               S S   S
|-14-----------------------------------------|
|------------------------------------------x-|
|--------------------------------------x-----|
|------------------------------------x-------|
|--------------------------------------------|
|--------------------------------------------|
|
|----------------------------------------|
|  S   S S S S S S S  S  S  S  S S S S   S
|--------------------------------------------|
|--------------------------------------------|
|--------------------------------------------|
|--------------------10-10-10-10-9-9-9---9---|
|--------------------------------------------|
|--8---8-8-8-8-8-8-8-------------------------|


  N.C.
                   ~~~~~~~~~~~~~~
   E       +E     +Q         +E     E    E    E
|-19b22---(19)---(19)-------(19)---17---15---14---|
|-------------------------------------------------|
|-------------------------------------------------|
|-------------------------------------------------|
|-------------------------------------------------|
|-------------------------------------------------|
|
|  PM----------------------------------------------
|  S    S   S  S   S  S S S   S  S  S S  S S  S S
|-------------------------------------------------|
|-------------------------------------------------|
|-------------------------------------------------|
|-------------------------------------------------|
|-------------------------------------------------|
|--6----6---6--6---6--6-6-6---6--6--6-6--6-6--6-6-|


   ~~~
   H.                        Q
|-15------------------------12\-------|
|-------------------------------------|
|-------------------------------------|
|-------------------------------------|
|-------------------------------------|
|-------------------------------------|
|
|-----------------------------------|
|  S  S S S S S S S S S S S  S  S S S
|-------------------------------------|
|-------------------------------------|
|-------------------------------------|
|-------------------------------------|
|-------------------------------------|
|--7--7-7-7-7-7-7-7-3-3-3-3--2--2-2-2-|


  N.C.
                   ~~~~
   E       +E     +H                 E        +S   S
|----------------------------------------------------|
|-15b17---(15)---(15)---------------15b17r===(15)p12-|
|----------------------------------------------------|
|----------------------------------------------------|
|----------------------------------------------------|
|----------------------------------------------------|
|
|  PM-------------------------------------------------
|  S    S   S  S   S  S S S S S S S  S     S   S   S
|----------------------------------------------------|
|----------------------------------------------------|
|----------------------------------------------------|
|----------------------------------------------------|
|---------------------------9-9-9-9-10----10--10--10-|
|--0----0---0--0---0--0-0-0--------------------------|


                   ~~~~
   E       +E     +H                     Q
|-------------------------------------------------|
|-15b17---(15)---(15)-------------------15\-------|
|-------------------------------------------------|
|-------------------------------------------------|
|-------------------------------------------------|
|-------------------------------------------------|
|
|-----------------------------------------------|
|  S    S   S  S   S  S S S  S  S  S  S  S  S S S
|-------------------------------------------------|
|-------------------------------------------------|
|-------------------------------------------------|
|---------------------------10-10-10-10--9--9-9-9-|
|-------------------------------------------------|
|--8----8---8--8---8--8-8-8-----------------------|


  N.C.
    |-------3-------|
    Q      Q        Q      E       +E     +E     +E
|------------------------------------------------------|
|-/12--------------------------------------------------|
|---------12-------------------------------------------|
|------------------14-----13b14---(13)---(13)---(13)---|
|------------------------------------------------------|
|------------------------------------------------------|
|
|   PM--------------------------------------------------
|   S S S    S S S    S S  S    S   S  S   S  S   S  S
|------------------------------------------------------|
|------------------------------------------------------|
|------------------------------------------------------|
|------------------------------------------------------|
|------------------------------------------------------|
|---6-6-6----6-6-6----6-6--6----6---6--6---6--6---6--6-|


                         ~~~~
   +E     +E     +E     +E    H
|----------------------------------|
|----------------------------------|
|----------------------------------|
|-(13)---(13)---(13)---(13)--------|
|----------------------------------|
|----------------------------------|
|
|---------------------------|
|   S  S   S  S   S  S   S  S H
|----------------------------------|
|----------------------------------|
|----------------------------------|
|----------------------------------|
|----------------------------------|
|---7--7---7--7---7--7---7--7------|


   Verse
    Q=200
    $
    N.C.
    Gtrs I, IV
    PM---------------------------------------------------------------------|
    S S S S S S S S S S S S  S  S  S  S   S S S S S S S S S S S S  S  S  S  S
||--------------------------------------|--------------------------------------|
||o-------------------------------------|--------------------------------------|
||--------------------------------------|--------------------------------------|
||--------------------------------------|--------------------------------------|
||o---------7-7-7-7-9-9-9-9-10-10-10-10-|---------7-7-7-7-9-9-9-9-10-10-10-10--|
||--0-0-0-0-----------------------------|-0-0-0-0------------------------------|


  N.C.
  S S S S S S S S S S S S  S  S  S  S   S S S S S S S S S S S S S S S S
|-------------------------------------|----------------------------------||
|-------------------------------------|---------------------------------o||
|-------------------------------------|----------------------------------||
|-------------------------------------|----------------------------------||
|---------7-7-7-7-9-9-9-9-10-10-10-10-|---------5-5-5-5-3-3-3-3-2-2-2-2-o||
|-8-8-8-8-----------------------------|-3-3-3-3--------------------------||


    N.C.
    Gtr I
    PM---------------------------------------------------------------------|
    S S S S S S S S S S S S  S  S  S  S   S S S S S S S S S S S S  S  S  S  S
||--------------------------------------|--------------------------------------|
||o-------------------------------------|--------------------------------------|
||--------------------------------------|--------------------------------------|
||------------------7-7-7-7--9--9--9--9-|-----------------7-7-7-7--9--9--9--9--|
||o---------7-7-7-7---------------------|---------7-7-7-7----------------------|
||--0-0-0-0-----------------------------|-0-0-0-0------------------------------|
|
|   Gtr IV
|   PM---------------------------------------------------------------------|
|   S S S S S S S S S S S S  S  S  S  S   S S S S S S S S S S S S  S  S  S  S
||--------------------------------------|--------------------------------------|
||o-------------------------------------|--------------------------------------|
||--------------------------------------|--------------------------------------|
||--------------------------------------|--------------------------------------|
||o---------7-7-7-7-9-9-9-9-10-10-10-10-|---------7-7-7-7-9-9-9-9-10-10-10-10--|
||--0-0-0-0-----------------------------|-0-0-0-0------------------------------|


  N.C.
  Gtrs I, IV
  PM------------------------------------------------------------------|
  S S S S S S S S S S S S  S  S  S  S   S S S S S S S S S S S S S S S S
|-------------------------------------|----------------------------------||
|-------------------------------------|---------------------------------o||
|-------------------------------------|----------------------------------||
|-------------------------------------|----------------------------------||
|---------7-7-7-7-9-9-9-9-10-10-10-10-|---------5-5-5-5-3-3-3-3-2-2-2-2-o||
|-8-8-8-8-----------------------------|-3-3-3-3--------------------------||


   Interlude
    N.C.
    PM----------------------------------------------------------------------|
    S S S S S S S S S S S S  S  S  S  S   S S S S S S S S  S  S  S  S S S S S
||--------------------------------------|--------------------------------------|
||o-------------------------------------|--------------------------------------|
||--------------------------------------|--------------------------------------|
||--------------------------------------|-----------------10-10-10-10-9-9-9-9--|
||o-----------------9-9-9-9-10-10-10-10-|--------------------------------------|
||--0-0-0-0-0-0-0-0---------------------|-8-8-8-8-8-8-8-8----------------------|


  1.
  N.C.
  PM--------------------------------------------------------------|
  S S S S S S S S S S S S S S S S   S S S S S S S S S S S S S S S S
|---------------------------------|----------------------------------||
|---------------------------------|---------------------------------o||
|---------------------------------|----------------------------------||
|---------------------------------|----------------------------------||
|---------------------------------|---------------------------------o||
|-6-6-6-6-6-6-6-6-6-6-6-6-6-6-6-6-|-7-7-7-7-7-7-7-7-3-3-3-3-2-2-2-2--||


  2.                                H.=H
  N.C.                                        G5
  Gtr I                                       Gtr I
  PM----------------------------|
  S S S S S S S S S S S S S S S S   E H.      E
|---------------------------------|-------------|
|---------------------------------|-------------|
|---------------------------------|-------------|
|---------------------------------|-----------5-|
|---------------------------------|-------------|
|-6-6-6-6-6-6-6-6-6-6-6-6-6-6-6-6-|-7-----------|
|
| Gtr IV                                      Gtr V
| PM----------------------------|
| S S S S S S S S S S S S S S S S   E H.      E
|---------------------------------|-------------|
|---------------------------------|-------------|
|---------------------------------|-------------|
|---------------------------------|-----------5-|
|---------------------------------|-----------5-|
|-6-6-6-6-6-6-6-6-6-6-6-6-6-6-6-6-|-7---------3-|


   Chorus
    Q=170                              1.
    G5               Eb5            G5                   F5        F#5  G5
                          ~~~~                                ~~~~~~~
    +E   E E E E E E E   +H..       E   +E   E E E E E E E   +Q.   H    E
||---------------------|--------------|--------------------|----------------||
||o--------------------|--------------|--------------------|---------------o||
||---------------------|--------------|--------------------|----------------||
||--(5)--0-7-0-8-0-0---|------------5-|-(5)--0-7-0-8-0-0-3-|-(3)---4----5---||
||o------------------6-|-(6)----------|--------------------|---------------o||
||---------------------|--------------|--------------------|----------------||
|
|   +H..             E   +H..       E   +H..             E   +Q.   H    E
||---------------------|--------------|--------------------|----------------||
||o--------------------|--------------|--------------------|---------------o||
||-------------------8-|-(8)----------|--------------------|----------------||
||--(5)--------------8-|-(8)--------5-|-(5)--------------3-|-(3)---4----5---||
||o-(5)--------------6-|-(6)--------5-|-(5)--------------3-|-(3)---4----5--o||
||--(3)----------------|------------3-|-(3)--------------1-|-(1)---2----3---||


  2.
  G5               F5        F#5  N.C.
                        ~~~~~~~                              ~~~~
  +E   E E E E E E E   +Q.   H    E   +E  E  E E  E E E E   +H..       E
|--------------------|--------------|---------------------|--------------|
|--------------------|--------------|---------------------|--------------|
|--------------------|--------------|---------------------|--------------|
|-(5)--0-7-0-8-0-0-3-|-(3)---4----5-|-(5)-0--7-0--8-0-0---|------------5-|
|--------------------|--------------|-------------------6-|-(6)----------|
|--------------------|--------------|---------------------|--------------|
|
| +H..             E   +Q.   H    E   +E  E  E E  E E E E   +H..       E
|--------------------|--------------|---------------------|--------------|
|--------------------|--------------|---------------------|--------------|
|--------------------|--------------|---------------------|--------------|
|-(5)--------------3-|-(3)---4----8-|-(8)-0-10-0-12-0-0-5-|-(5)--------8-|
|-(5)--------------3-|-(3)---4------|---------------------|--------------|
|-(3)--------------1-|-(1)---2------|---------------------|--------------|


  N.C.
                         ~~~~~~~                              ~~~~
  +E  E  E E  E E E E   +Q.   H    E   +E  E  E E  E E E E   +H..       E
|---------------------|--------------|---------------------|--------------|
|---------------------|--------------|---------------------|--------------|
|---------------------|--------------|---------------------|--------------|
|-(5)-0--7-0--8-0-0-3-|-(3)---4----5-|-(5)-0--7-0--8-0-0---|------------5-|
|---------------------|--------------|-------------------6-|-(6)----------|
|---------------------|--------------|---------------------|--------------|
|
|                        ~~~~~~~                              ~~~~
| +E  E  E E  E E E E   +Q.   H    E   +E  E  E E  E E E E   +H..       E
|---------------------|--------------|---------------------|--------------|
|---------------------|--------------|---------------------|--------------|
|---------------------|--------------|---------------------|--------------|
|-(8)-0-10-0-12-0-0-7-|-(7)---7----8-|-(8)-0-10-0-12-0-0-5-|-(5)--------8-|
|---------------------|--------------|---------------------|--------------|
|---------------------|--------------|---------------------|--------------|


                               D.S.
  N.C.
                         ~~~~~~~
  +E  E  E E  E E E E   +Q.   H     E
|---------------------|----------------|
|---------------------|----------------|
|---------------------|----------------|
|-(5)-0--7-0--8-0-0-3-|-(3)---4--------|
|---------------------|----------------|
|---------------------|------------15\-|
|
|                        ~~~~~~~
| +E  E  E E  E E E E   +Q.   H     E
|---------------------|----------------|
|---------------------|----------------|
|---------------------|----------------|
|-(8)-0-10-0-12-0-0-7-|-(7)---7--------|
|---------------------|----------------|
|---------------------|----------------|


 Lead: Christopher Amott
  D5                   Bb5                        G/B
  Gtr III
   PM------|   ~~    PM           PM---|   ~~   PM
   E  E  E  E  Q     E  E    +E   E  E  E  Q    E  E
|-------------------------|--------------------------|
|-------------------------|--------------------------|
|-------------------------|--------------------------|
|-------12-14-15----------|---------12-14-15---------|
|-12-12-------------12-13-|-(13)-13------------13-14-|
|-------------------------|--------------------------|
|
| Gtr V
|        PM---------|                PM--------|
|  E  E  E  E  E  E  E  E    +E   E  E  E  E E  E  E
|-------------------------|--------------------------|
|-------------------------|--------------------------|
|-------------------------|--------------------------|
|-12-12-----------------8-|--(8)--8----------------9-|
|-12-12-----------------8-|--(8)--8---------------10-|
|-10-10-10-10-10-10-10--6-|--(6)--6--6--6--6-6--6--7-|


                        C5              A/C#          D5
        PM---|   ~~~           ~~~~          ~~~~       ~~~~
   +E   E  E  E  Q.      E    +E   E  E  E  +E   E  E  +E
|--------------------------|-------------------------------|
|--------------------------|-------------------------------|
|--------------------------|-------------------------------|
|---------12-14-15------17-|-(17)-15-14-14-(14)-12-11-(11)-|
|-(14)-14------------------|-------------------------------|
|--------------------------|-------------------------------|
|
|          PM---------|               PM            PM
|  +E   E  E  E  E  E E  E    +E   E  E  E  +E   E  E   E
|--------------------------|-------------------------------|
|--------------------------|-------------------------------|
|--------------------------|-------------------------------|
|--(9)--9---------------10-|-(10)-10----11-(11)-11-----12--|
|-(10)-10---------------10-|-(10)-10----12-(12)-12-----12--|
|--(7)--7--7--7--7--7-7--8-|--(8)--8--8--9--(9)--9--9--10--|


  D5                     Bb5                        G/B
  Gtr III
    PM-------|   ~~    PM           PM---|   ~~   PM
    E   E  E  E  Q     E  E    +E   E  E  E  Q    E  E
|---------------------------|--------------------------|
|---------------------------|--------------------------|
|---------------------------|--------------------------|
|---------12-14-15----------|---------12-14-15---------|
|--12--12-------------12-13-|-(13)-13------------13-14-|
|---------------------------|--------------------------|
|
| Gtr IV
|   W                           W
|---------------------------|--------------------------|
|---------------------------|--------------------------|
|---------------------------|--------------------------|
|---------------------------|--------------------------|
|---------------------------|--------------------------|
|---------------------------|--------------------------|
|
| Gtr V
|          PM---------|                PM--------|
|  +E   E  E  E  E  E  E  E    +E   E  E  E  E E  E  E
|---------------------------|--------------------------|
|---------------------------|--------------------------|
|---------------------------|--------------------------|
|-(12)-12-----------------8-|--(8)--8----------------9-|
|-(12)-12-----------------8-|--(8)--8---------------10-|
|-(10)-10-10-10-10-10-10--6-|--(6)--6--6--6--6-6--6--7-|


                         C5                A/C#         D5
         PM---|   ~~~           ~~~~    ~~~~    ~~~~
   +E    E  E  E  Q.      E    +E   E  +E   E  +H
|---------------------------|------------------------------|
|---------------------------|------------------------------|
|---------------------------|------12-(12)-14-(14)---------|
|----------12-14-15------15-|-(15)-------------------------|
|-(14)--14------------------|------------------------------|
|---------------------------|------------------------------|
|
|                               ~~~~    ~~~~    ~~~~
|   H..                   E    +E   E  +E   E  +H
|---------------------------|------------------------------|
|---------------------------|------------------------------|
|---------------------------|------------------------------|
|------------------------12-|-(12)-14-(14)-14-(14)---------|
|---------------------------|------------------------------|
|---------------------------|------------------------------|
|
|           PM---------|                PM            PM
|  +E    E  E  E  E  E E  E    +E   E   E   E  +E   E E  E
|---------------------------|------------------------------|
|---------------------------|------------------------------|
|---------------------------|------------------------------|
|--(9)---9---------------10-|-(10)-10------11-(11)-11---12-|
|-(10)--10---------------10-|-(10)-10------12-(12)-12---12-|
|--(7)---7--7--7--7--7-7--8-|--(8)--8---8---9--(9)--9-9-10-|


  D5                     Bb5                        G/B
    PM-------|   ~~    PM           PM---|   ~~   PM
    E   E  E  E  Q     E  E    +E   E  E  E  Q    E  E
|---------------------------|--------------------------|
|---------------------------|--------------------------|
|---------------------------|--------------------------|
|---------12-14-15----------|---------12-14-15---------|
|--12--12-------------12-13-|-(13)-13------------13-14-|
|---------------------------|--------------------------|
|
|   PM-------|   ~~    PM           PM---|   ~~   PM
|   E   E  E  E  Q     E  E    +E   E  E  E  Q    E  E
|---------------------------|--------------------------|
|---------------------------|--------------------------|
|---------10-12-14----------|---------10-12-14---------|
|--12--12-------------12-12-|-(12)-12------------12-12-|
|---------------------------|--------------------------|
|---------------------------|--------------------------|
|
|          PM---------|                PM--------|
|  +E   E  E  E  E  E  E  E    +E   E  E  E  E E  E  E
|---------------------------|--------------------------|
|---------------------------|--------------------------|
|---------------------------|--------------------------|
|-(12)-12-----------------8-|--(8)--8----------------9-|
|-(12)-12-----------------8-|--(8)--8---------------10-|
|-(10)-10-10-10-10-10-10--6-|--(6)--6--6--6--6-6--6--7-|


                        C5               A/C#          D5
        PM---|   ~~~            ~~~~          ~~~~       ~~~~
   +E   E  E  E  Q.       E    +E   E  E  E  +E   E  E  +E
|---------------------------|-------------------------------|
|---------------------------|-------------------------------|
|---------------------------|-------------------------------|
|---------12-14-15-------17-|-(17)-15-14-14-(14)-12-11-(11)-|
|-(14)-14-------------------|-------------------------------|
|---------------------------|-------------------------------|
|
|       PM---|   ~~~            ~~~~          ~~~~       ~~~~
|  +E   E  E  E  Q.       E    +E   E  E  E  +E   E  E  +E
|---------------------------|-------------------------------|
|---------------------------|-------------------------------|
|---------10-12-14------/15-|-(15)-14-12-12-(12)------------|
|-(12)-12-------------------|--------------------15-14-(14)-|
|---------------------------|-------------------------------|
|---------------------------|-------------------------------|
|
|          PM---------|                PM            PM
|  +E   E  E  E  E  E E   E    +E   E  E  E  +E   E  E   E
|---------------------------|-------------------------------|
|---------------------------|-------------------------------|
|---------------------------|-------------------------------|
|--(9)--9----------------10-|-(10)-10----11-(11)-11-----12--|
|-(10)-10----------------10-|-(10)-10----12-(12)-12-----12--|
|--(7)--7--7--7--7--7-7---8-|--(8)--8--8--9--(9)--9--9--10--|


  D5                     Bb5                        G/B
    PM-------|   ~~    PM           PM---|   ~~   PM
    E   E  E  E  Q     E  E    +E   E  E  E  Q    E  E
|---------------------------|--------------------------|
|---------------------------|--------------------------|
|---------------------------|--------------------------|
|---------12-14-15----------|---------12-14-15---------|
|--12--12-------------12-13-|-(13)-13------------13-14-|
|---------------------------|--------------------------|
|
|   PM-------|   ~~    PM           PM---|   ~~   PM
|   E   E  E  E  Q     E  E    +E   E  E  E  Q    E  E
|---------------------------|--------------------------|
|---------------------------|--------------------------|
|---------10-12-14----------|---------10-12-14---------|
|--12--12-------------12-12-|-(12)-12------------12-12-|
|---------------------------|--------------------------|
|---------------------------|--------------------------|
|
|          PM---------|                PM--------|
|  +E   E  E  E  E  E  E  E    +E   E  E  E  E E  E  E
|---------------------------|--------------------------|
|---------------------------|--------------------------|
|---------------------------|--------------------------|
|-(12)-12-----------------8-|--(8)--8----------------9-|
|-(12)-12-----------------8-|--(8)--8---------------10-|
|-(10)-10-10-10-10-10-10--6-|--(6)--6--6--6--6-6--6--7-|


                        C5                                      A/C#            D5
        PM---|                                                          ~~~~
                         |--3--|     |--3---|  |--3--|  |--3--|
   +E   E  E  E  Q.      S  S  S     S   S  S  S  S  S  S  S  S  S  S   H
|-----------------------15p13p12-|-------------------------------------------------|
|--------------------------------|--15p=14----14h15p14----14h15p14-----------------|
|--------------------------------|---------15----------15----------15p=14----------|
|---------12-14-15---------------|-------------------------------------------------|
|-(14)-14------------------------|-------------------------------------------------|
|--------------------------------|-------------------------------------------------|
|
|       PM---|                                                          ~~~~
|                        |--3--|     |--3---|  |--3--|  |--3--|
|  +E   E  E  E  Q.      S  S  S     S   S  S  S  S  S  S  S  S  S  S   H
|-----------------------18p17p15-|-------------------------------------------------|
|--------------------------------|--18p=17p15-17h18p17-15h17h18-17p15p=14----------|
|---------10-12-14---------------|-------------------------------------------------|
|-(12)-12------------------------|-------------------------------------------------|
|--------------------------------|-------------------------------------------------|
|--------------------------------|-------------------------------------------------|
|
|          PM---------|                                 PM                    PM
|  +E   E  E  E  E  E E  E          +E         E        E        E     +E   E E  E
|--------------------------------|-------------------------------------------------|
|--------------------------------|-------------------------------------------------|
|--------------------------------|-------------------------------------------------|
|--(9)--9---------------10-------|-(10)-------10----------------11----(11)-11---12-|
|-(10)-10---------------10-------|-(10)-------10----------------12----(12)-12---12-|
|--(7)--7--7--7--7--7-7--8-------|--(8)--------8--------8--------9-----(9)--9-9-10-|


 Interlude #2
  N.C.
  Gtr I
  PM----|   PM----|   PM--------------|   PM----|   PM----|
  S S S S E S S S S E S S S S   S S S S E S S S S E S S S S
|-----------------------------|-----------------------------|
|---------6---------6---------|---------6---------6---------|
|-----------------------------|-----------------------------|
|-3-3-3-3---3-3-3-3---3-3-3-3-|-3-3-3-3---3-3-3-3---3-3-3-3-|
|-----------------------------|-----------------------------|
|-----------------------------|-----------------------------|
|
| Gtr IV
| PM----|   PM----|   PM--------------|   PM----|   PM----|
| S S S S E S S S S E S S S S   S S S S E S S S S E S S S S
|---------1---------1---------|-----------------------------|
|-----------------------------|-----------------------------|
|-----------------------------|---------6---------6---------|
|-----------------------------|-----------------------------|
|-----------------------------|-4-4-4-4---4-4-4-4---4-4-4-4-|
|-1-1-1-1---1-1-1-1---1-1-1-1-|-----------------------------|


  N.C.
  PM----|   PM----|   PM--------------|   PM----|   PM----|
  S S S S E S S S S E S S S S   S S S S E S S S S E S S S S
|-----------------------------|-----------------------------|
|---------6---------6---------|---------8---------8---------|
|-----------------------------|-----------------------------|
|-3-3-3-3---3-3-3-3---3-3-3-3-|-5-5-5-5---5-5-5-5---5-5-5-5-|
|-----------------------------|-----------------------------|
|-----------------------------|-----------------------------|
|
| PM----|   PM----|   PM--------------|   PM----|   PM----|
| S S S S E S S S S E S S S S   S S S S E S S S S E S S S S
|-----------------------------|-----------------------------|
|-----------------------------|-----------------------------|
|---------7---------7---------|---------8---------9---------|
|-----------------------------|-----------------------------|
|-5-5-5-5---5-5-5-5---5-5-5-5-|-6-6-6-6---6-6-7-7---7-7-7-7-|
|-----------------------------|-----------------------------|


  N.C.
  PM----|   PM----|   PM--------------|   PM----|   PM----|
  S S S S E S S S S E S S S S   S S S S E S S S S E S S S S
|-----------------------------|-----------------------------|
|---------9---------9---------|---------6---------6---------|
|-----------------------------|-----------------------------|
|-6-6-6-6---6-6-6-6---6-6-6-6-|-3-3-3-3---3-3-3-3---3-3-3-3-|
|-----------------------------|-----------------------------|
|-----------------------------|-----------------------------|
|
| PM----|   PM----|   PM--------------|   PM----|   PM----|
| S S S S E S S S S E S S S S   S S S S E S S S S E S S S S
|---------1---------1---------|-----------------------------|
|-----------------------------|-----------------------------|
|-----------------------------|---------6---------6---------|
|-----------------------------|-----------------------------|
|-----------------------------|-4-4-4-4---4-4-4-4---4-4-4-4-|
|-1-1-1-1---1-1-1-1---1-1-1-1-|-----------------------------|


  N.C.
  PM----|   PM----|   PM--------------|   PM----|   PM----|
  S S S S E S S S S E S S S S   S S S S E S S S S E S S S S
|-----------------------------|-----------------------------|
|---------6---------6---------|---------8---------8---------|
|-----------------------------|-----------------------------|
|-3-3-3-3---3-3-3-3---3-3-3-3-|-5-5-5-5---5-5-5-5---5-5-5-5-|
|-----------------------------|-----------------------------|
|-----------------------------|-----------------------------|
|
| PM----|   PM----|   PM--------------|   PM----|   PM----|
| S S S S E S S S S E S S S S   S S S S E S S S S E S S S S
|-----------------------------|-----------------------------|
|-----------------------------|-----------------------------|
|---------7---------7---------|---------8---------9---------|
|-----------------------------|-----------------------------|
|-5-5-5-5---5-5-5-5---5-5-5-5-|-6-6-6-6---6-6-7-7---7-7-7-7-|
|-----------------------------|-----------------------------|


 Lead 2: Christopher Amott
  N.C.
  Gtr IV
                    ~~~~
   E        +E     +H             +E     +E
|-18b20====(18)---(18)-----------(18)r==(18)---|
|----------------------------------------------|
|----------------------------------------------|
|----------------------------------------------|
|----------------------------------------------|
|----------------------------------------------|
|
| Gtr V
|  PM-----------|      PM----|     PM-----------
|  S     S   S  S   E  S S S S E   S  S   S  S
|-------------------1----------1---------------|
|----------------------------------------------|
|----------------------------------------------|
|--3-----3---3--3------3-3-3-3-----3--3---3--3-|
|----------------------------------------------|
|--1-----1---1--1------1-1-1-1-----1--1---1--1-|


  C#
   ~~~
   H.                    E    E
|-16--------------------15---16---|
|---------------------------------|
|---------------------------------|
|---------------------------------|
|---------------------------------|
|---------------------------------|
|
|---------|   PM----|    PM-----|
|  S  S S S E S S S S E  S S  S S
|---------------------------------|
|-----------6---------6-----------|
|-----------6---------6-----------|
|--3--3-3-3---3-3-3-3----3-3--3-3-|
|--4--4-4-4---4-4-4-4----4-4--4-4-|
|---------------------------------|


  Dm
   ~~~
                     |---------3----------|
   Q.          S  S  Q      E      +E     Q
|-15----------16p15-----------------------------|
|-------------------18-----16pb18r(16)---13-----|
|-----------------------------------------------|
|-----------------------------------------------|
|-----------------------------------------------|
|-----------------------------------------------|
|
|  PM-----|    PM------|            PM-----------
|  S  S S S E  S  S  S S E          S  S    S S
|-----------------------------------------------|
|-----------6------------6----------------------|
|-----------7------------7----------------------|
|--3--3-3-3----3--3--3-3------------3--3----3-3-|
|--5--5-5-5----5--5--5-5------------5--5----5-5-|
|-----------------------------------------------|


  Eb                         Em
                               ~~~~
   E       +E     +E   +E     +H
|---------------------------------------------|
|---------------------------------------------|
|-15b17---(15)---(15)-(15)---(15)-------------|
|---------------------------------------------|
|---------------------------------------------|
|---------------------------------------------|
|
|--------------|        PM--------|   PM----|
|  S    S   S  S   E    S  S   S  S E S S S S
|---------------------------------------------|
|------------------8----------------8---------|
|------------------8----------------9---------|
|--5----5---5--5--------5--5---5--5---5-5-5-5-|
|--6----6---6--6--------6--6---7--7---7-7-7-7-|
|---------------------------------------------|


  Fm
  Gtr III
   S  S  S  S  S  S  S  S  S  S  S  S  S  S  S  S
|-20p16-------------------------------20p16-------|
|-------18----------------------------------18----|
|----------17----------------------17----------17-|
|-------------18----------18----18----------------|
|----------------20p15-20----20-------------------|
|-------------------------------------------------|
|
| Gtr IV
|  S  S  S  S  S  S  S  S  S  S  S  S  S  S  S  S
|-16p13-------------------------------16p13-------|
|-------13----------------------------------13----|
|----------13----------------------13----------13-|
|-------------15----------15----15----------------|
|----------------15----15----15-------------------|
|-------------------16----------------------------|
|
| Gtr V
|  PM------|         PM------|         PM----------
|  S  S  S  S  E     S  S  S  S  E     S  S  S  S
|--------------4-----------------4----------------|
|--------------6-----------------6----------------|
|--1--1--1--1--------1--1--1--1--------1--1--1--1-|
|-------------------------------------------------|
|-------------------------------------------------|
|--1--1--1--1--------1--1--1--1--------1--1--1--1-|


  C#
   S  S  S  S  S  S  S  S  S  S  S  S  S  S  S  S
|-21p16-------------------------------21p16-------|
|-------18----------------------------------18----|
|----------18----------------------18----------18-|
|-------------18----------18----18----------------|
|----------------20p16-20----20-------------------|
|-------------------------------------------------|
|
|  S  S  S  S  S  S  S  S  S  S  S  S  S  S  S  S
|-16p13-------------------------------16p13-------|
|-------14----------------------------------14----|
|----------13----------------------13----------13-|
|-------------15----------15----15----------------|
|----------------16----16----16-------------------|
|-------------------16----------------------------|
|
|----------|         PM------|         PM------|
|  S  S  S  S  E     S  S  S  S  E     S  S  S  S
|-------------------------------------------------|
|--------------6-----------------6----------------|
|--------------6-----------------6----------------|
|--3--3--3--3--------3--3--3--3--------3--3--3--3-|
|--4--4--4--4--------4--4--4--4--------4--4--4--4-|
|-------------------------------------------------|


  Dm
   S  S  S  S  S  S  S  S  S  S  S  S  S  S  S  S
|-22p18-------------------------------23p18-------|
|-------18----------------------------------18----|
|----------19----------------------19----------19-|
|-------------20p15----15h20-15h20----------------|
|-------------------17----------------------------|
|-------------------------------------------------|
|
|  S  S  S  S  S  S  S  S  S  S  S  S  S  S  S  S
|-18p13-------------------------------18p13-------|
|-------15----------------------------------15----|
|----------15----------------------15----------15-|
|-------------15----------15----15----------------|
|----------------17p13-17----17-------------------|
|-------------------------------------------------|
|
|  PM------|         PM------|         PM----------
|  S  S  S  S  E     S  S  S  S  E     S  S  S  S
|-------------------------------------------------|
|--------------6-----------------6----------------|
|--------------7-----------------7----------------|
|--3--3--3--3--------3--3--3--3--------3--3--3--3-|
|--5--5--5--5--------5--5--5--5--------5--5--5--5-|
|-------------------------------------------------|


                                      Breakdown
                                    Q=145
  Eb                      Em           N.C.
                                      2/4
                           ~~
   S  S  S  S  S  S  S  S  H           E E E E
|-23p18----------------18-24--------||---------|
|-------20----------20--------------||---------|
|----------20----20-----------------||---------|
|-------------20--------------------||---------|
|-----------------------------------||-5-7-5-3-|
|-----------------------------------||---------|
|
|                          ~~
|  S  S  S  S  S  S  S  S  H           E E E E
|-18p13----------------13-20--------||---------|
|-------16----------16--------------||---------|
|----------15----15-----------------||---------|
|-------------17--------------------||---------|
|-----------------------------------||---------|
|-----------------------------------||-7-8-7-5-|
|
|----------|         PM------|
|  S  S  S  S  E     S  S  S S E Q     H
|-----------------------------------||---------|
|--------------8---------------8----||---------|
|--------------8---------------9----||---------|
|--5--5--5--5--------5--5--5-5------||---------|
|--6--6--6--6--------6--6--7-7------||---------|
|-----------------------------------||---------|


 Lead 2: Michael Amott
  F5               G5        A5             Bm C        Bm Am
 4/4
  Gtr I
               ~~~~                 ~~~~
                                                |--3--|
   E     +E   +Q    E  E  E   E    +Q.    E  E  S  S  S  E  E
|-22b24-(22)-(22)--22-20-19-----|-----------------------------|
|----------------------------22-|-(22)------------------------|
|-------------------------------|-----------------------------|
|-------------------------------|--------21-22-21h22p21-19----|
|-------------------------------|--------------------------22-|
|-------------------------------|-----------------------------|
|
| Gtr V
|  H                E  E +E   E    +H        E  E        E  E
|-------------------------------|-----------------------------|
|-------------------------------|-----------------------------|
|-------------------------------|-----------------------------|
|--3----------------5--5-(5)--7-|--(7)------------------------|
|--3----------------5--5-(5)--7-|--(7)-------5--7--------5--3-|
|--1----------------3--3-(3)--5-|--(5)-------7--8--------7--5-|


  F5    D5         E5           Bm    C    Bm    Am
   ~~                     ~~~~
                                 |---3---|  |---3---|
   H     E  E  +E   E    +H      E  E    E  E  E    E
|---------------------|----------------------------19--|
|---------------------|-----------------19-20-22-------|
|-------19-19-(19)-21-|-(21)----19-21------------------|
|---------------------|--------------------------------|
|-20------------------|--------------------------------|
|---------------------|--------------------------------|
|
|  H     E  E  +E   E    +H      E    E     E    E
|---------------------|--------------------------------|
|---------------------|--------------------------------|
|--------7--7--(7)--9-|--(9)---------------------------|
|--3-----7--7--(7)--9-|--(9)---------------------------|
|--3-----5--5--(5)--7-|--(7)-----5----7-----5----3-----|
|--1------------------|----------7----8-----7----5-----|


  F5              G5               A5           Bm  C   Bm  Am
                                    ~~~~~~~~~   TPTPTPTPTPTP ~~~~~~~~~~~
   E  +E   E  +E   E  E  S     +S   E    +H     S S S S S S  S     +S
|-20-(20)-19-(19)----19-19b20-(19)-19-|-(19)---------------------------|
|-----------------22------------------|--------------------------------|
|-------------------------------------|---------------------19b21-(19)-|
|-------------------------------------|--------------------------------|
|-------------------------------------|---------xSxSxSxSxSx------------|
|-------------------------------------|--------------------------------|
|
|  H               E  E +E          E    +H     E   E   E    E
|-------------------------------------|--------------------------------|
|-------------------------------------|--------------------------------|
|-------------------------------------|--------------------------------|
|--3---------------5--5-(5)---------7-|--(7)---------------------------|
|--3---------------5--5-(5)---------7-|--(7)----5---7---5----3---------|
|--1---------------3--3-(3)---------5-|--(5)----7---8---7----5---------|


  F5          D5           A5           Bm         C  Bm Am
 ~~~~~~                           ~~~~
   +Q    E  E  Q.           E    +H      S     +S   E  E  E
|-----------------------------|-----------------------17-19-|
|-----------------------------|--------------------17-------|
|-(19)--19--------------------|---------19b21-(19)----------|
|----------22-21tr22-------19-|-(19)------------------------|
|-----------------------------|-----------------------------|
|-----------------------------|-----------------------------|
|
|   H          E     E +E   E    +H      E          E  E  E
|-----------------------------|-----------------------------|
|-----------------------------|-----------------------------|
|--------------7-----7-(7)--2-|--(2)------------------------|
|---3----------7-----7-(7)--2-|--(2)------------------------|
|---3----------5-----5-(5)--0-|--(0)-----5----------7--5--3-|
|---1-------------------------|----------7----------8--7--5-|


  F5            G5 G5           A5           Bm         C  Bm Am
                                       ~~~~
                    |--3--|
   E  +E   E  E  E  S  S  S  E   E    +H      S     +S   E  E  E
|-20-(20)-19-17-19-17h19p17-----17-|-(17)------------------17-19-|
|---------------------------20-----|--------------------17-------|
|----------------------------------|---------19b21-(19)----------|
|----------------------------------|-----------------------------|
|----------------------------------|-----------------------------|
|----------------------------------|-----------------------------|
|
|  H             E  E       +E   E    +H      E          E  E  E
|----------------------------------|-----------------------------|
|----------------------------------|-----------------------------|
|----------------------------------|-----------------------------|
|--3-------------5--5-------(5)--7-|--(7)------------------------|
|--3-------------5--5-------(5)--7-|--(7)-----5----------7--5--3-|
|--1-------------3--3-------(3)--5-|--(5)-----7----------8--7--5-|


  F5            D5                 E5           BmC BmAm
                                          ~~~~
   E  +E   E  E  S     +S   E  +E   E    +H     H
|-20-(20)-19-20-20b22-(20)-20-(20)-19-|-(19)----5S======|
|-------------------------------------|-----------------|
|-------------------------------------|-----------------|
|-------------------------------------|-----------------|
|-------------------------------------|-----------------|
|-------------------------------------|-----------------|
|
|  H             E          E  +E   E    +H     E E E E
|-------------------------------------|-----------------|
|-------------------------------------|-----------------|
|----------------7----------7--(7)--9-|--(9)------------|
|--3-------------7----------7--(7)--9-|--(9)------------|
|--3-------------5----------5--(5)--7-|--(7)----5-7-5-3-|
|--1----------------------------------|---------7-8-7-5-|


  F5                                 G5
                                                                 ~~~
   S  S     +S   S  S     S  S     S  S     S  S     S  S     S  E
|-17------------17-------17-------17-------17-------17-------17-17-|
|----20b22-(20)----20b22----20b22----20b22----20b22----20b22-------|
|------------------------------------------------------------------|
|------------------------------------------------------------------|
|------------------------------------------------------------------|
|------------------------------------------------------------------|
|
|  H                                  E        E       +E        E
|------------------------------------------------------------------|
|------------------------------------------------------------------|
|------------------------------------------------------------------|
|--3----------------------------------5--------5-------(5)-------7-|
|--3----------------------------------5--------5-------(5)-------7-|
|--1----------------------------------3--------3-------(3)-------5-|


                                                                                   Q=160
          Bm   C  Bm Am   F5                    D5                   A5                  G5
                                                                                         Gtr I
 ~~~~~~                                                                        ~~~~~
   +H      +E   E  E  E    E     +E   E     +E   E     +S   S  S   S  E       +H..       E
|-(17)----(17)----17-20-|-20b24-(20)-20b24-(20)-20b24-(20)-17h20p=17-------|---------------|
|--------------20-------|--------------------------------------------20b22-|-(20)----------|
|-----------------------|--------------------------------------------------|---------------|
|-----------------------|--------------------------------------------------|-------------5-|
|-----------------------|--------------------------------------------------|---------------|
|-----------------------|--------------------------------------------------|---------------|
|
|                                                                                        Gtr IV
|  +H       E   E  E  E    H                     E      E     +E      E       +H..       E
|-----------------------|--------------------------------------------------|---------------|
|-----------------------|--------------------------------------------------|---------------|
|-----------------------|------------------------7------7-----(7)-----2----|--(2)----------|
|--(7)------------------|--3---------------------7------7-----(7)-----2----|--(2)--------5-|
|--(7)------5---7--5--3-|--3---------------------5------5-----(5)-----0----|--(0)--------5-|
|--(5)------7---8--7--5-|--1-----------------------------------------------|-------------3-|


   Chorus
                                       1.
    G5               Eb5            G5                   F5        F#5  G5
    +E   E E E E E E E   +H..       E   +E   E E E E E E E   +Q.   H    E
||---------------------|--------------|--------------------|----------------||
||o--------------------|--------------|--------------------|---------------o||
||---------------------|--------------|--------------------|----------------||
||--(5)--0-7-0-8-0-0---|------------5-|-(5)--0-7-0-8-0-0-3-|-(3)---4----5---||
||o------------------6-|-(6)----------|--------------------|---------------o||
||---------------------|--------------|--------------------|----------------||
|
|   +H..             E   +H..       E   +H..             E   +Q.   H    E
||---------------------|--------------|--------------------|----------------||
||o--------------------|--------------|--------------------|---------------o||
||-------------------8-|-(8)----------|--------------------|----------------||
||--(5)--------------8-|-(8)--------5-|-(5)--------------3-|-(3)---4----5---||
||o-(5)--------------6-|-(6)--------5-|-(5)--------------3-|-(3)---4----5--o||
||--(3)----------------|------------3-|-(3)--------------1-|-(1)---2----3---||


  2.
  G5               F5        F#5  N.C.
  +E   E E E E E E E   +Q.   H    E   +E  E  E E  E E E E   +H..       E
|--------------------|--------------|---------------------|--------------|
|--------------------|--------------|---------------------|--------------|
|--------------------|--------------|---------------------|--------------|
|-(5)--0-7-0-8-0-0-3-|-(3)---4----5-|-(5)-0--7-0--8-0-0---|------------5-|
|--------------------|--------------|-------------------6-|-(6)----------|
|--------------------|--------------|---------------------|--------------|
|
| +H..             E   +Q.   H    E   +E  E  E E  E E E E   +H..       E
|--------------------|--------------|---------------------|--------------|
|--------------------|--------------|---------------------|--------------|
|--------------------|--------------|---------------------|--------------|
|-(5)--------------3-|-(3)---4----8-|-(8)-0-10-0-12-0-0-5-|-(5)--------8-|
|-(5)--------------3-|-(3)---4------|---------------------|--------------|
|-(3)--------------1-|-(1)---2------|---------------------|--------------|


  N.C.
  +E  E  E E  E E E E   +Q.   H    E   +E  E  E E  E E E E   +H..       E
|---------------------|--------------|---------------------|--------------|
|---------------------|--------------|---------------------|--------------|
|---------------------|--------------|---------------------|--------------|
|-(5)-0--7-0--8-0-0-3-|-(3)---4----5-|-(5)-0--7-0--8-0-0---|------------5-|
|---------------------|--------------|-------------------6-|-(6)----------|
|---------------------|--------------|---------------------|--------------|
|
| +E  E  E E  E E E E   +Q.   H    E   +E  E  E E  E E E E   +H..       E
|---------------------|--------------|---------------------|--------------|
|---------------------|--------------|---------------------|--------------|
|---------------------|--------------|---------------------|--------------|
|-(8)-0-10-0-12-0-0-7-|-(7)---7----8-|-(8)-0-10-0-12-0-0-5-|-(5)--------8-|
|---------------------|--------------|---------------------|--------------|
|---------------------|--------------|---------------------|--------------|


  N.C.              F5        C    G5
  +E  E  E E  E E E E   +Q.   H    E   +E  +E   H.
|---------------------|--------------|----------------*|
|---------------------|--------------|----------------*|
|---------------------|-------5------|----------------*|
|-(5)-0--7-0--8-0-0-3-|-(3)---2----5-|-(5)-(5)\-------*|
|-------------------3-|-(3)---3----5-|-(5)-(5)\-------*|
|-------------------1-|-(1)--------3-|-(3)-(3)\-------*|
|
| +E  E  E E  E E E E   +Q.   H    E   +E  +E   H.
|---------------------|--------------|----------------*|
|---------------------|--------------|----------------*|
|---------------------|--------------|----------------*|
|-(8)-0-10-0-12-0-0-7-|-(7)--------5-|-(5)-(5)\-------*|
|---------------------|-------7----5-|-(5)-(5)\-------*|
|---------------------|------------3-|-(3)-(3)\-------*|



Duration Legend
---------------
W - whole; H - half; Q - quarter; E - 8th; S - 16th; T - 32nd; X - 64th; a - acciaccatura
+ - note tied to previous; . - note dotted; .. - note double dotted
Uncapitalized letters represent notes that are staccato (1/2 duration)
Irregular groupings are notated above the duration line
Duration letters will always appear directly above the note/fret number it represents the
duration for.  Duration letters with no fret number below them represent rests.  Multi-
bar rests are notated in the form Wxn, where n is the number of bars to rest for.  Low
melody durations appear below the staff

Tablature Legend
----------------
 h   - hammer-on
 p   - pull-off
 b   - bend
 pb  - pre-bend
 r   - bend release (if no number after the r, then release immediately)
 /\  - slide into or out of (from/to "nowhere")
 s   - legato slide
 S   - shift slide
 - natural harmonic
[n]  - artificial harmonic
n(n) - tapped harmonic
 ~   - vibrato
 tr  - trill
 T   - tap
 TP  - trem. picking
 PM  - palm muting
\n/  - tremolo bar dip; n = amount to dip
 \n  - tremolo bar down
 n/  - tremolo bar up
/n\  - tremolo bar inverted dip
 =   - hold bend; also acts as connecting device for hammers/pulls
 <> - volume swell (louder/softer)
 x   - on rhythm slash represents muted slash
 o   - on rhythm slash represents single note slash

Misc Legend
-----------
 |  - bar
||  - double bar
||o - repeat start
o|| - repeat end
*|  - double bar (ending)
 :  - bar (freetime)
 $  - Segno
 &  - Coda
Tempo markers -  = BPM(8/16=s8/s16), where s8 = swing 8ths, s16 = swing 16ths

Tap to rate this tab
# A B C D E F G H I J K L M N O P Q R S T U V W X Y Z