Song name
# A B C D E F G H I J K L M N O P Q R S T U V W X Y Z

Arch Enemy - Bridge Of Destiny tab

#----------------------------------PLEASE NOTE---------------------------------#
#This file is the author's own work and represents their interpretation of the #
#song. You may only use this file for private study, scholarship, or research. #
#------------------------------------------------------------------------------#

BRIDGE OF DESTINY
As recorded by Arch Enemy
(From the 1998 Album STIGMATA)

Transcribed by The Foreverlorn
	

Words by Michael Amott Music by Michael Amott/Christopher Amott
Arranged by M. & C. Amott/Peter Wildoer

Gtr I (B E A D F# B) - 'Michael Lead'
Gtr II (B E A D F# B) - 'Christopher Lead'
Gtr III (B E A D F# B) - 'Rhythm'
Gtr IV (B E A D F# B) - 'Christopher 2nd Lead'

   Intro
    Q=160
    N.C.
   4/4
    Gtr I
    PM--|       PM     PM      PM------|       PM     PM ~~
    |-3-|  |-3--|  |-3-|  |-3--|   |-3-|  |-3--|  |-3-|
    E E E  E  E E  E E E  E  E E   E E E  E  E E  E E E  Q
||-------------------------------|--------------------------|
||o------------------------------|--------------------------|
||-------------------------------|--------------------------|
||--------10p=7----9p6---10p=7---|-------10p=7----9p6---10--|
||o-0-0-0-------0------0-------0-|-0-0-0-------0------0-----|
||-------------------------------|--------------------------|
|
|   Gtr II
|   PM--|       PM     PM      PM------|       PM     PM ~~
|   |-3-|  |-3--|  |-3-|  |-3--|   |-3-|  |-3--|  |-3-|
|   E E E  E  E E  E E E  E  E E   E E E  E  E E  E E E  Q
||-------------------------------|--------------------------|
||o------------------------------|--------------------------|
||-------------------------------|--------------------------|
||--------14p10---12p9---14p10---|-------14p10---12p9---14--|
||o-0-0-0-------0------0-------0-|-0-0-0-------0------0-----|
||-------------------------------|--------------------------|


  N.C.
  PM--|       PM     PM      PM--------|            PM---|
  |-3-|  |-3--|  |-3-|  |-3--|    |--3--|  |--3--|  |--3--|  |--3--|
  E E E  E  E E  E E E  E  E E    E  E  E  E  E  E  E  E  E  E  E  E  4x
|------------------------------|--------------------------------------||
|------------------------------|-------------------------------------o||
|------------------------------|--------------------------------------||
|-------10p=7----9p6---10p=7---|----------10p=7-------------10p=7-----||
|-0-0-0-------0------0-------0-|--8--8--8--------0--7--7--7--------0-o||
|------------------------------|--------------------------------------||
|
| PM--|       PM     PM      PM--------|            PM---|
| |-3-|  |-3--|  |-3-|  |-3--|    |--3--|  |--3--|  |--3--|  |--3--|
| E E E  E  E E  E E E  E  E E    E  E  E  E  E  E  E  E  E  E  E  E  4x
|------------------------------|--------------------------------------||
|------------------------------|-------------------------------------o||
|------------------------------|--------------------------------------||
|-------14p10---12p9---14p10---|----------14p10-------------14p10-----||
|-0-0-0-------0------0-------0-|----------------12----------------12-o||
|------------------------------|-13-13-13----------12-12-12-----------||


 Verse
  Q=150
  $
  $$
  N.C.                                  Bb5            N.C.
  Gtrs I, II
  PM----------------------------------|   PM|          PM--------------|
  E E S E S E E S E S     E E S E S S S E S S E   +E   E S E S E E S E S  3x
|---------------------||------------------------|-------------------------||
|---------------------||o-----------------------|------------------------o||
|---------------------||------------------------|-------------------------||
|---------------------||----------------8-----8-|-(8)\--------------------||
|---------------------||o---------------8-----8-|-(8)\-------------------o||
|-0-0-0-0-0-0-0-0-0-0-||--0-0-0-0-0-0-0-6-0-0-6-|-(6)\-0-0-0-0-0-0-0-0-0--||


  N.C.          Bb5
  Gtr I
  PM----------|       PM|
  E E S E S S S  E    S S  S      +S
|---------------12--------12-----(12)-|
|---------------15b17-----15b17==(15)-|
|-------------------------------------|
|-------------------------------------|
|-------------------------------------|
|-0-0-0-0-0-0-0-------0-0-------------|
|
| Gtr II
| PM----------|       PM|
| E E S E S S S  E    S S  E
|-------------------------------------|
|-------------------------------------|
|-------------------------------------|
|----------------8---------8----------|
|----------------8---------8----------|
|-0-0-0-0-0-0-0--6----0-0--6----------|


         N.C.                              Bb5
    E    E S E S E E S E S   E E S E S S S E S S E
|-(12)\--------------------|-----------------------|
|-(15)r\-------------------|-----------------------|
|--------------------------|-----------------------|
|--------------------------|---------------8-----8-|
|--------------------------|---------------8-----8-|
|--------0-0-0-0-0-0-0-0-0-|-0-0-0-0-0-0-0-6-0-0-6-|
|
|  +E    E S E S E E S E S   E E S E S S S E S S E
|--------------------------|-----------------------|
|--------------------------|-----------------------|
|--------------------------|-----------------------|
|--(8)\--------------------|---------------8-----8-|
|--(8)\--------------------|---------------8-----8-|
|--(6)\--0-0-0-0-0-0-0-0-0-|-0-0-0-0-0-0-0-6-0-0-6-|


    Bb5  N.C.                              Bb5              N.C.
    +E   E S E S E E S E S   E E S E S S S E S S E     +E   E S E S E E S E S
||-------------------------|------------------------||-------------------------|
||o------------------------|-----------------------o||-------------------------|
||-------------------------|------------------------||-------------------------|
||--(8)\-------------------|---------------8-----8--||-(8)\--------------------|
||o-(8)\-------------------|---------------8-----8-o||-(8)\--------------------|
||--(6)\-0-0-0-0-0-0-0-0-0-|-0-0-0-0-0-0-0-6-0-0-6--||-(6)\-0-0-0-0-0-0-0-0-0--|
|
|   +E   E S E S E E S E S   E E S E S S S E S S E     +E   E S E S E E S E S
||-------------------------|------------------------||-------------------------|
||o------------------------|-----------------------o||-------------------------|
||-------------------------|------------------------||-------------------------|
||--(8)\-------------------|---------------8-----8--||-(8)\--------------------|
||o-(8)\-------------------|---------------8-----8-o||-(8)\--------------------|
||--(6)\-0-0-0-0-0-0-0-0-0-|-0-0-0-0-0-0-0-6-0-0-6--||-(6)\-0-0-0-0-0-0-0-0-0--|


                               Chorus
  N.C.
  Gtrs I, II
                                PM--------------------------| ~~~~~~
  E E S E S S S S S S S S S     E E E E E E E E   E E E E E E E +E
|---------------------------||------------------|--------------------|
|---------------------------||o-----------------|--------------------|
|---------------------------||------------------|--------------------|
|---------------------------||--------7-6-------|-------7-6----------|
|---------------------------||o---7-8-----7-8-5-|---7-8-----7-8-(8)--|
|-0-0-0-0-0-0-0-0-0-0-0-0-0-||--0---------------|-0------------------|


  N.C.
  PM--------------------------| ~~~~~~
  E E E E E E E E   E E E E E E E +E
|-----------------|--------------------||
|-----------------|-------------------o||
|-----------------|--------------------||
|-------7-6-------|--------------------||
|---7-8-----7-8-5-|-7---5-------------o||
|-0---------------|---8---7-8-7-4-(4)--||


    N.C.
    Gtr I
    PM--|               PM--|         ~~~~~~~
    E E  E E E E  E E   E E  E E E E  E  +E
||--------------------|----------------------|
||o-------------------|----------------------|
||---------9-8--------|--------9-8-----------|
||----9-10-----9-10-7-|---9-10-----9-10-(10)-|
||o-------------------|----------------------|
||--0-----------------|-0--------------------|
|
|   Gtr II
|   PM--|               PM--|         ~~~~~~~
|   E E  E E E E  E E   E E  E E E E  E  +E
||--------------------|----------------------|
||o-------------------|----------------------|
||--------------------|----------------------|
||---------7-6--------|--------7-6-----------|
||o---7--8-----7--8-5-|---7--8-----7--8--(8)-|
||--0-----------------|-0--------------------|


                                   To Coda
                                   To Coda
  PM--|                             ~~~~~~
  E E  E E E E  E E   E  E E E  E E E +E
|-------------------|-----------------------||
|-------------------|----------------------o||
|--------9-8--------|-----------------------||
|---9-10-----9-10-7-|-9----7----------------||
|-------------------|---10---9-10-9-6-(6)--o||
|-0-----------------|-----------------------||
|
| PM--|                             ~~~~~~
| E E  E E E E  E E   E  E E E  E E E +E
|-------------------|-----------------------||
|-------------------|----------------------o||
|-------------------|-----------------------||
|--------7-6--------|-----------------------||
|---7--8-----7--8-5-|-7----5---------------o||
|-0-----------------|----8---7--8-7-4-(4)---||


   Intro (repeated)
    Q=160
    N.C.
    PM--|       PM     PM      PM------|       PM     PM ~~
    |-3-|  |-3--|  |-3-|  |-3--|   |-3-|  |-3--|  |-3-|
    E E E  E  E E  E E E  E  E E   E E E  E  E E  E E E  Q
||-------------------------------|--------------------------|
||o------------------------------|--------------------------|
||-------------------------------|--------------------------|
||--------10p=7----9p6---10p=7---|-------10p=7----9p6---10--|
||o-0-0-0-------0------0-------0-|-0-0-0-------0------0-----|
||-------------------------------|--------------------------|
|
|   PM--|       PM     PM      PM------|       PM     PM ~~
|   |-3-|  |-3--|  |-3-|  |-3--|   |-3-|  |-3--|  |-3-|
|   E E E  E  E E  E E E  E  E E   E E E  E  E E  E E E  Q
||-------------------------------|--------------------------|
||o------------------------------|--------------------------|
||-------------------------------|--------------------------|
||--------14p10---12p9---14p10---|-------14p10---12p9---14--|
||o-0-0-0-------0------0-------0-|-0-0-0-------0------0-----|
||-------------------------------|--------------------------|


                                                      D.S. al Coda
  N.C.
  PM--|       PM     PM      PM--------|            PM---|
  |-3-|  |-3--|  |-3-|  |-3--|    |--3--|  |--3--|  |--3--|  |--3--|
  E E E  E  E E  E E E  E  E E    E  E  E  E  E  E  E  E  E  E  E  E
|------------------------------|--------------------------------------||
|------------------------------|-------------------------------------o||
|------------------------------|--------------------------------------||
|-------10p=7----9p6---10p=7---|----------10p=7-------------10p=7-----||
|-0-0-0-------0------0-------0-|--8--8--8--------0--7--7--7--------0-o||
|------------------------------|--------------------------------------||
|
| PM--|       PM     PM      PM--------|            PM---|
| |-3-|  |-3--|  |-3-|  |-3--|    |--3--|  |--3--|  |--3--|  |--3--|
| E E E  E  E E  E E E  E  E E    E  E  E  E  E  E  E  E  E  E  E  E
|------------------------------|--------------------------------------||
|------------------------------|-------------------------------------o||
|------------------------------|--------------------------------------||
|-------14p10---12p9---14p10---|----------14p10-------------14p10-----||
|-0-0-0-------0------0-------0-|----------------12----------------12-o||
|------------------------------|-13-13-13----------12-12-12-----------||


   Interlude #2
    Q=150                            1.,2.,3.,4.,5.,6.,7.
    &
    N.C.    F5         D5    Bb5      N.C.
    Gtrs I, II
    PM----|    PM----|   PM|          PM----------------------------|
    S S S S  E S S S S E S S S +S     S S S S S S S S S S S S S S S S  8x
||----------------------------------|----------------------------------||
||o---------------------------------|---------------------------------o||
||----------------------------------|----------------------------------||
||----------10---------7------------|----------------------------------||
||o----------8---------5-----8-(8)\-|-----------------5-5-7-7---------o||
||--0-0-0-0----0-0-0-0---0-0-6-(6)\-|-0-0-0-0-0-0-0-0---------8-8-7-7--||


  8.
  N.C.                                          F5         D5    Bb5
  Gtr I
  PM------------------------------------------|    PM----|   PM|
  S S S S S S S S S S S S  S  S S S     S S S S  E S S S S E S S S +S
|-----------------------------------||----------------------------------|
|-----------------------------------||o---------------------------------|
|-----------------------------------||----------------------------------|
|-----------------7-7-9-9-----------||----------10---------7------------|
|-------------------------10-10-9-9-||o----------8---------5-----8-(8)\-|
|-0-0-0-0-0-0-0-0-------------------||--0-0-0-0----0-0-0-0---0-0-6-(6)\-|
|
| Gtr II
| PM------------------------------------------|    PM----|   PM|
| S S S S S S S S S S S S  S  S S S     S S S S  E S S S S E S S S +S
|-----------------------------------||----------------------------------|
|-----------------------------------||o---------------------------------|
|-----------------------------------||----------------------------------|
|-----------------------------------||----------10---------7------------|
|-----------------5-5-7-7-----------||o----------8---------5-----8-(8)\-|
|-0-0-0-0-0-0-0-0----------8--8-7-7-||--0-0-0-0----0-0-0-0---0-0-6-(6)\-|


  N.C.
  PM----------------------------|
  S S S S S S S S S S S S S S S S    4x
|------------------------------------||
|-----------------------------------o||
|------------------------------------||
|------------------------------------||
|-----------------5-5-7-7-----------o||
|-0-0-0-0-0-0-0-0---------8-8-7-7----||
|
| PM----------------------------|
| S S S S S S S S S S S S S S S S    4x
|------------------------------------||
|-----------------------------------o||
|------------------------------------||
|------------------------------------||
|-----------------5-5-7-7-----------o||
|-0-0-0-0-0-0-0-0---------8-8-7-7----||


 Lead: Christopher
  F5  E5
  Gtr II
  S S  S S  S S  S  S  S  S  S  S  S  S  S  S
|-7-------------10----------------13-12-11-10-|
|---9---------9----12----------12-------------|
|-----10-7-10---------13-10-13----------------|
|---------------------------------------------|
|---------------------------------------------|
|---------------------------------------------|
|
| Gtr IV
| S S  S S  S S  S  S  S  S  S  S  S  S  S  S
|----------------7----------------10--9--8--7-|
|-9-6---------6-----9-----------9-------------|
|------7----7---------10--7-10----------------|
|--------9------------------------------------|
|---------------------------------------------|
|---------------------------------------------|
|
| Gtr III
| E    q         q           q           E
|---------------------------------------------|
|---------------------------------------------|
|---------------------------------------------|
|-3----2---------2-----------2-----------2----|
|-3----2---------2-----------2-----------2----|
|-1----0---------0-----------0-----------0----|


  Bb5   E5
   S  S  S  S  S  S  S  S  S  S  S  S  S  S  S  S
|-16----------------19----------------22-21-20-19-|
|----18----------18----21----------21-------------|
|-------19-16-19----------22-19-22----------------|
|-------------------------------------------------|
|-------------------------------------------------|
|-------------------------------------------------|
|
|  S  S  S  S  S  S  S  S  S  S  S  S  S  S  S  S
|-13-10----------10-16-13----------13-19-18-17-16-|
|-------12----12----------15----15----------------|
|----------13----------------16-------------------|
|-------------------------------------------------|
|-------------------------------------------------|
|-------------------------------------------------|
|
|  E     q           q           q           E
|-------------------------------------------------|
|-------------------------------------------------|
|-------------------------------------------------|
|--8-----2-----------2-----------2-----------2----|
|--8-----2-----------2-----------2-----------2----|
|--6-----0-----------0-----------0-----------0----|


  F5    E5                              G5       F#5      B5       Bb5
                     ~~~~~~~~~~~~
   S  S  S  S  S  S  S  +S   +H          S  E  S  S  E  S  S  E  S  S  E  S
|-22-19----19-------------------------|-22-------16-------19-------13-------|
|-------21----21-18-------------------|-------------------------------------|
|-------------------19-(19)-(19)------|----19S13----13S16----16S10----10----|
|-------------------------------------|----------------------------------12-|
|-------------------------------------|-------------------------------------|
|-------------------------------------|-------------------------------------|
|
|                    ~~~~~~~~~~~~
|  S  S  S  S  S  S  S  +S   +H          W
|-19-16----16-------------------------|-------------------------------------|
|-------18----18----------------------|-------------------------------------|
|----------------19-16-(16)-(16)------|-------------------------------------|
|-------------------------------------|-------------------------------------|
|-------------------------------------|-------------------------------------|
|-------------------------------------|-------------------------------------|
|
|  E     q           q           q  E    Q        Q        Q        Q
|-------------------------------------|-------------------------------------|
|-------------------------------------|-------------------------------------|
|-------------------------------------|--------------------4--------3-------|
|--3-----2-----------2-----------2--2-|--5--------4--------4--------3-------|
|--3-----2-----------2-----------2--2-|--5--------4--------2--------1-------|
|--1-----0-----------0-----------0--0-|--3--------2-------------------------|


  F5 E5                     Bb5   E5
  Gtr II
   ~~         ~~~~~~~                                 ~~~~
   Q    +E    E  +H          S  S  S  S  S  S  S  S  +H
|-------------------------|-----------------------------------|
|-----------/17-(17)------|-17-18-17-15-----------------------|
|-------------------------|-------------17-16-14-13-(13)------|
|-14---(14)---------------|-----------------------------------|
|-------------------------|-----------------------------------|
|-------------------------|-----------------------------------|
|
| Gtr III
|  E q        q      q  E    E     q           q         q  E
|-------------------------|-----------------------------------|
|-------------------------|-----------------------------------|
|-------------------------|-----------------------------------|
|--3-2--------2------2--2-|--8-----2-----------2---------2--2-|
|--3-2--------2------2--2-|--8-----2-----------2---------2--2-|
|--1-0--------0------0--0-|--6-----0-----------0---------0--0-|


  F5    E5
                         ~~~~~~~~
   |---3---|  |---3---|
   E  E    E  E  E    E  H
|---------20----19---17-19------|
|-17-18------17-----------------|
|-------------------------------|
|-------------------------------|
|-------------------------------|
|-------------------------------|
|
|  E    q          q       q  E
|-------------------------------|
|-------------------------------|
|-------------------------------|
|--3----2----------2-------2--2-|
|--3----2----------2-------2--2-|
|--1----0----------0-------0--0-|


  G5    F#5                 B5    Bb5
 ~~~~~~            ~~~~~~~~~~~~~~ TPTPTPTPTPTPTPTP
   +Q    +S       +S    +E   +Q   T T T T T T T T
|-(19)--(19)b22==(19)r-(19)-(19)------------------|
|-------------------------------------------------|
|-------------------------------------------------|
|-------------------------------------------------|
|-------------------------------------------------|
|---------------------------------xSxSxSxSxSxSxSx-|
|
|   Q     Q                   Q   Q
|-------------------------------------------------|
|-------------------------------------------------|
|-----------------------------4---3---------------|
|---5-----4-------------------4---3---------------|
|---5-----4-------------------2---1---------------|
|---3-----2---------------------------------------|


  F5 E5                             Bb5   E5
  \2
                     ~~~~~~~~                          ~~~~~~~~~~~~
  E  +E  +E   S     +S   +H          S  S  S  S  S  S  S  +S   +H
|---------------------------------|-16----12----------------------------|
|------------15b17-(15)-(15)------|----15----15-12----------------------|
|---------------------------------|----------------14-13-(13)-(13)------|
|---------------------------------|-------------------------------------|
|---------------------------------|-------------------------------------|
|-0--(0)-(0)----------------------|-------------------------------------|
|
| E   q       q              q  E    E     q           q           q  E
|---------------------------------|-------------------------------------|
|---------------------------------|-------------------------------------|
|---------------------------------|-------------------------------------|
|-3---2-------2--------------2--2-|--8-----2-----------2-----------2--2-|
|-3---2-------2--------------2--2-|--8-----2-----------2-----------2--2-|
|-1---0-------0--------------0--0-|--6-----0-----------0-----------0--0-|


  F5       E5
                                                      ~~~~~~~
   |--3--|  |--3--|  |--3--|  |--3--|  |--3--|  |--3--|
   S  S  S  S  S  S  S  S  S  S  S  S  S  S  S  S  S  S  +Q
|-12-----------------------------------------------------------|
|----15-13-12-------12-----------------------------------------|
|-------------14-13----14-13-----------------------------------|
|----------------------------15-14-12-14-12--------------------|
|-------------------------------------------15-14-12-11-(11)---|
|--------------------------------------------------------------|
|
|  E        q                 q                 q            E
|--------------------------------------------------------------|
|--------------------------------------------------------------|
|--------------------------------------------------------------|
|--3--------2-----------------2-----------------2------------2-|
|--3--------2-----------------2-----------------2------------2-|
|--1--------0-----------------0-----------------0------------0-|


  G5          F#5         B5  Bb5
                              \1
                           ~~
   S  S  S  S  S  S  S  S  Q  E  +E
|-12-13-12-------------13-12---------|
|----------15-13-12------------------|
|-------------------14---------------|
|------------------------------------|
|------------------------------------|
|-----------------------------0--(0)-|
|
|  Q           Q           Q  Q
|------------------------------------|
|------------------------------------|
|--------------------------4--3------|
|--5-----------4-----------4--3------|
|--5-----------4-----------2--1------|
|--3-----------2---------------------|


  F5    E5
  |-3-| |-3-| |-3-| |-3-| |-3-| |-3-| |-3--| |-3--|
  S S S S S S S S S S S S S S S S S S S S  S S S  S
|---------------------------------------------------|
|---------------------------------------------------|
|-------------------------------------7-9-10-7-9-10-|
|-------------------------6-7-9-6-7-9---------------|
|-------------5-7-8-5-7-8---------------------------|
|-4-5-7-4-5-7---------------------------------------|
|
| E     q           q           q            E
|---------------------------------------------------|
|---------------------------------------------------|
|---------------------------------------------------|
|-3-----2-----------2-----------2------------2------|
|-3-----2-----------2-----------2------------2------|
|-1-----0-----------0-----------0------------0------|


  Bb5     E5
  |--3--| |--3--| |--3--|
  S  S  S S  S  S S  S  S  S S  S S  S  S S  S S  S
|-----------------8-10-12-10-8-10-8-----------------|
|-9-10-12-9-10-12-------------------12-10-9-10-9----|
|------------------------------------------------10-|
|---------------------------------------------------|
|---------------------------------------------------|
|---------------------------------------------------|
|
| E       q                q         q         E
|---------------------------------------------------|
|---------------------------------------------------|
|---------------------------------------------------|
|-8-------2----------------2---------2---------2----|
|-8-------2----------------2---------2---------2----|
|-6-------0----------------0---------0---------0----|


  F5 E5                  G5          F#5         B5          Bb5
  Gtr II
  ~~             ~~~
         |-3--|              |--3--|     |--3--|     |--3--|     |--3--|
  Q.     E E  E  Q.       E  S  S  S  E  S  S  S  E  S  S  S  E  S  S  S
|-------10-8-----------|-16-16h19p16-------------------------------------|
|------------10s12-----|-------------18-18h21p18-15-18p17p15----17p15----|
|-9--------------------|-------------------------------------17-------17-|
|----------------------|-------------------------------------------------|
|----------------------|-------------------------------------------------|
|----------------------|-------------------------------------------------|
|
| Gtr IV
|                            |--3--|     |--3--|     |--3--|     |--3--|
| W                       E  S  S  S  E  S  S  S  E  S  S  S  E  S  S  S
|----------------------|-------------------------------------------------|
|----------------------|-18-18h21p18-------------------------------------|
|----------------------|-------------19-19h22p19-16-19p17p16-14-17p16p14-|
|----------------------|-------------------------------------------------|
|----------------------|-------------------------------------------------|
|----------------------|-------------------------------------------------|
|
| Gtr III
| E  q   q       q   E    Q           Q           Q           Q
|----------------------|-------------------------------------------------|
|----------------------|-------------------------------------------------|
|----------------------|--------------------------4-----------3----------|
|-3--2---2-------2---2-|--5-----------4-----------4-----------3----------|
|-3--2---2-------2---2-|--5-----------4-----------2-----------1----------|
|-1--0---0-------0---0-|--3-----------2----------------------------------|


 Interlude #3
  F5 E5 N.C.                         Bb5E5 N.C.
      ~~~~~~~
   E  E  +H.                          E  E  +E     E   H
|----------------------------------|-17-16-(16)\-----------------------|
|----------------------------------|-----------------------------------|
|-14-13-(13)-----------------------|-----------------------------------|
|----------------------------------|-----------------------------------|
|----------------------------------|-----------------------------------|
|----------------------------------|-----------------------------------|
|
|     ~~~~~~~
|  E  E  +H.                          E  E  +E     E   H
|----------------------------------|-----------------------------------|
|----------------------------------|-18-17-(17)\-----------------------|
|----------------------------------|-----------------------------------|
|-15-14-(14)-----------------------|-----------------------------------|
|----------------------------------|-----------------------------------|
|----------------------------------|-----------------------------------|
|
| Gtrs I, III
|         PM---------------------|           PM----------------------|
|  E  E   S  S S S S S S S S S S S    E  E   S   S S S S S S S S S S S
|----------------------------------|-----------------------------------|
|----------------------------------|-----------------------------------|
|----------------------------------|-----------------------------------|
|--3--2----------------------------|--8--2-----------------------------|
|--3--2----------------------------|--8--2-----------------------------|
|--1--0---0--0-0-0-0-0-0-0-0-0-0-0-|--6--0---0---0-0-0-0-0-0-0-0-0-0-0-|


  F5E5N.C.                      G5 F#5B5 Bb5
  Gtrs I, II
      PM--------------------|
  E E S S S S S S S S S S S S   Q  Q  Q  Q
|-----------------------------|-------------|
|-----------------------------|-------------|
|-----------------------------|-------4--3--|
|-3-2-------------------------|-5--4--4--3--|
|-3-2-------------------------|-5--4--2--1--|
|-1-0-0-0-0-0-0-0-0-0-0-0-0-0-|-3--2--------|


    F5E5N.C.                      BbE5N.C.
        PM--------------------|       PM--------------------|
    E E S S S S S S S S S S S S   E E S S S S S S S S S S S S
||------------------------------|-----------------------------|
||o-----------------------------|-----------------------------|
||------------------------------|-----------------------------|
||--3-2-------------------------|-8-2-------------------------|
||o-3-2-------------------------|-8-2-------------------------|
||--1-0-0-0-0-0-0-0-0-0-0-0-0-0-|-6-0-0-0-0-0-0-0-0-0-0-0-0-0-|


                        D.S.S. al Dbl. Coda
  F5E5N.C.                      G5 F#5B5 Bb5
      PM--------------------|
  E E S S S S S S S S S S S S   Q  Q  Q  Q   3x
|-----------------------------|--------------||
|-----------------------------|-------------o||
|-----------------------------|-------4--3---||
|-3-2-------------------------|-5--4--4--3---||
|-3-2-------------------------|-5--4--2--1--o||
|-1-0-0-0-0-0-0-0-0-0-0-0-0-0-|-3--2---------||


   Bridge
    Q=140
    &&
    N.C.      E5     N.C.      E5     N.C.      C5      N.C.      C5
   6/8
    PM------|        PM------|        PM------|         PM------|
    E S S S S Q.     E S S S S Q.     E S S S S  Q.     E S S S S  Q.
||-----------------|----------------|-----------------|-----------------|
||o----------------|----------------|-----------------|-----------------|
||------------9----|-----------9----|-----------------|-----------------|
||------------9----|-----------9----|-----------10----|-----------10----|
||o-----------7----|-----------7----|-----------10----|-----------10----|
||--0-0-0-0-0------|-0-0-0-0-0------|-8-8-8-8-8--8----|-8-8-8-8-8--8----|


  N.C.      F#5    N.C.      F#5
  PM------|        PM------|
  E S S S S Q.     E S S S S Q.
|----------------|----------------|
|----------------|----------------|
|----------------|----------------|
|-----------4----|-----------4----|
|-----------4----|-----------4----|
|-2-2-2-2-2-2----|-2-2-2-2-2-2----|


 1.
  B5N.C.    B5N.C.      B5N.C.    B5N.C.
    PM----|   PM----|     PM----|   PM----|
  E S S S S E S S S S   E S S S S E S S S S
|---------------------|----------------------||
|---------------------|---------------------o||
|---------------------|----------------------||
|-9---------9---------|-9---------9----------||
|-9---------9---------|-9---------9---------o||
|-7-7-7-7-7-7-7-7-7-7-|-7-7-7-7-7-7-7-7-7-7--||


  2.
  B5 N.C.    B5N.C.      B5
  Gtr I
                                  |-3-|
  H.                     H      E S S S
|----------------------|----------------|
|----------------------|----------------|
|----------------------|--------------x-|
|----------------------|------------x---|
|----------------------|----------x-----|
|----------------------|----------------|
|
| Gtrs II, III
|    PM----|   PM----|
| E  S S S S E S S S S   E E H
|----------------------|----------------|
|----------------------|----------------|
|----------------------|----------------|
|-9----------9---------|-9--------------|
|-9----------9---------|-9--------------|
|-7--7-7-7-7-7-7-7-7-7-|-7--------------|


 Lead: Michael
  N.C.                     E5     N.C.             E5
  Gtr I
          ~~~~~~~~~~~~~~~
   S     +S   +E     +H            +Q       +E       E   E  E
|-------------------------------|-----------------------------|
|-15b17-(15)-(15)---(15)--------|-(15)-----(15)\--------------|
|-------------------------------|-----------------------12-14-|
|-------------------------------|------------------/14--------|
|-------------------------------|-----------------------------|
|-------------------------------|-----------------------------|
|
| Gtr III
|  PM--------------------|          PM-----------|
|  E           S  S   S  S Q.       E  S S   S   S   Q.
|-------------------------------|-----------------------------|
|-------------------------------|-----------------------------|
|--------------------------9----|--------------------9--------|
|--------------------------9----|--------------------9--------|
|--------------------------7----|--------------------7--------|
|--0-----------0--0---0--0------|---0--0-0---0---0------------|


  N.C.                 C5                      N.C.        C5
                                                ~~~
   E      +E     +E     +E   S  S  S     +s     H.
|--------------------------------------------|--------------------|
|--------------------------------------------|--------------------|
|-14b16==(14)---(14)---(14)r14-12-14b16-(14)-|-14-----------------|
|--------------------------------------------|--------------------|
|--------------------------------------------|--------------------|
|--------------------------------------------|--------------------|
|
|  PM----------------|                          PM-------|
|  E       S  S   S  S   Q.                     E  S S S S  Q.
|--------------------------------------------|--------------------|
|--------------------------------------------|--------------------|
|--------------------------------------------|--------------------|
|-----------------------10-------------------|-------------10-----|
|-----------------------10-------------------|-------------10-----|
|--8-------8--8---8--8---8-------------------|--8--8-8-8-8--8-----|


  N.C.         F#5               N.C.               F#5
                                                      ~~~~
   E  E    E    E     +E   +E     +E   +E     +E     +Q.
|-17-19---20---17b19-(17)-(17)-|-(17)-(17)---(17)---(17)---|
|------------------------------|---------------------------|
|------------------------------|---------------------------|
|------------------------------|---------------------------|
|------------------------------|---------------------------|
|------------------------------|---------------------------|
|
|  PM--------|                     PM-------------|
|  E  S S  S S  Q.                 E    S  S   S  S   Q.
|------------------------------|---------------------------|
|------------------------------|---------------------------|
|------------------------------|---------------------------|
|---------------4--------------|----------------------4----|
|---------------4--------------|----------------------4----|
|--2--2-2--2-2--2--------------|---2----2--2---2--2---2----|


  B5       N.C.                  B5       N.C.                    B5       N.C.        B5N.C.
                                                                            ~~~~~~~~~
   |--3--|  |---3---|  |---3---|  |--3--|  |---3---|  |---3---|    |--3--|
   S  S  S  S  S    S  S  S    S  S  S  S  S  S    S  S  S    S    S  S  S  E    +H
|-17-19-20-17-19---20-20----------------------------------------|---------------------------------|
|------------------------16---17-19-16-17-19-19-----------------|---------------------------------|
|-------------------------------------------------14-16-17---14-|-16-17-17-14---(14)--------------|
|---------------------------------------------------------------|---------------------------------|
|---------------------------------------------------------------|---------------------------------|
|---------------------------------------------------------------|---------------------------------|
|
|           PM--------------|              PM--------------|                PM-------|   PM----|
|  E        S    S     S    S     E        S    S     S    S       E        S S   S  S E S S S S
|---------------------------------------------------------------|---------------------------------|
|---------------------------------------------------------------|---------------------------------|
|---------------------------------------------------------------|---------------------------------|
|--9------------------------------9-----------------------------|--9-------------------9----------|
|--9------------------------------9-----------------------------|--9-------------------9----------|
|--7--------7----7-----7----7-----7--------7----7-----7----7----|--7--------7-7---7--7-7-7-7-7-7--|


  N.C.         E5        N.C.         E5
           ~~~~~~~~PM|            ~~~~~~~~
    E  E   E   +E  E E     E  E   E   +Q.
|----------------------|--------------------|
|----------------------|--------------------|
|-\11-12---9---(9)---9-|-\11-12---9---(9)---|
|------------------9---|--------------------|
|----------------------|--------------------|
|----------------------|--------------------|
|
|   PM-------|             PM-------|
|   E  S S S S  Q.         E  S S S S  Q.
|----------------------|--------------------|
|----------------------|--------------------|
|---------------9------|---------------9----|
|---------------9------|---------------9----|
|---------------7------|---------------7----|
|---0--0-0-0-0---------|---0--0-0-0-0-------|


  N.C.          C5          N.C.          C5
            ~~~~~~~~~PM|              ~~~~~~~~~
    E  E    E    +E  E  E     E  E    E    +Q.
|-------------------------|----------------------|
|-\12-13---10---(10)---10-|-\12-13---10---(10)---|
|--------------------9----|----------------------|
|-------------------------|----------------------|
|-------------------------|----------------------|
|-------------------------|----------------------|
|
|   PM--------|               PM--------|
|   E  S S  S S   Q.          E  S S  S S   Q.
|-------------------------|----------------------|
|-------------------------|----------------------|
|-------------------------|----------------------|
|----------------10-------|----------------10----|
|----------------10-------|----------------10----|
|---8--8-8--8-8---8-------|---8--8-8--8-8---8----|


  N.C.       F#5       N.C.       F#5
                 PM|
   E E   E   +E  E E    E E   E   +Q    E
|--------------------|---------------------|
|-\7-8---7---(7)-----|-\7-8---7---(7)--12\-|
|------------------8-|---------------------|
|----------------9---|---------------------|
|--------------------|---------------------|
|--------------------|---------------------|
|
|  PM------|            PM------|
|  E S S S S  Q.        E S S S S  Q.
|--------------------|---------------------|
|--------------------|---------------------|
|--------------------|---------------------|
|-------------4------|-------------4-------|
|-------------4------|-------------4-------|
|--2-2-2-2-2--2------|--2-2-2-2-2--2-------|


  B5       C5         B5
   Q.       Q.         E   +E   H
|-------------------|----------------|
|-------------------|----------------|
|-11tr12---12tr14---|-16--(16)\------|
|-------------------|----------------|
|-------------------|----------------|
|-------------------|----------------|
|
|                     Gtrs II, III
|  Q.       Q.         H.
|-------------------|----------------|
|-------------------|----------------|
|-------------------|----------------|
|--9-------10-------|--9-------------|
|--9-------10-------|--9-------------|
|--7--------8-------|--7-------------|


               Outro Riff
  H.=H          Q=100
  B5
 4/4
  Gtr I
                                 |--3--|
  +W            +E   E  E  E  E  S  S  S  E  E
|------------||--------12-14-15-14h15p14-12----|
|------------||-----12----------------------12-|
|------------||--------------------------------|
|-(9)--------||-(9)----------------------------|
|-(9)--------||-(9)----------------------------|
|-(7)--------||-(7)----------------------------|
|
| Gtr II
|                                |--3--|
| +W            +E   E  E  E  E  S  S  S  E  E
|------------||--------------------------------|
|------------||--------------------------------|
|------------||---------9-11-12-11h12p11--9----|
|-(9)--------||-(9)--9-----------------------9-|
|-(9)--------||-(9)----------------------------|
|-(7)--------||-(7)----------------------------|


    C5                      D5
    Gtr I
                                              |--3--|
     E  +E   +E   E  H       +E   E  E  E  E  S  S  S  E  E
||------------------------|---------10-12-14-12h14p12-10----|
||o-15-(15)-(15)-13-13----|-(13)-10----------------------13-|
||------------------------|---------------------------------|
||------------------------|---------------------------------|
||o-----------------------|---------------------------------|
||------------------------|---------------------------------|
|
|   Gtr II
|                                             |--3--|
|    E  +E   +E   E  H       +E   E  E  E  E  S  S  S  E  E
||------------------------|---------------------------------|
||o-----------------------|---------------------------------|
||------------------------|-------------9-11--9h11p=9-------|
||--12-(12)-(12)-10-10----|-(10)----12----------------12-10-|
||o-----------------------|------12-------------------------|
||------------------------|---------------------------------|
|
|   Gtr III
|    W                        W
||------------------------|---------------------------------|
||o-----------------------|---------------------------------|
||------------------------|---------------------------------|
||--10--------------------|--12-----------------------------|
||o-10--------------------|--12-----------------------------|
||---8--------------------|--10-----------------------------|


  E5                                               D5          C5
                         ~~~~
                                                    |--3--|
   E     +E   +E   +E   +H        +E   E  E   E  E  S  S  S  E  E
|------------------------------|---------12--14-15-14h15p14-12-10--|
|-11b12-(11)-(11)-(11)-(11)----|-(11)-12---------------------------|
|------------------------------|-----------------------------------|
|------------------------------|-----------------------------------|
|------------------------------|-----------------------------------|
|------------------------------|-----------------------------------|
|
|                        ~~~~
|                                                   |--3--|
|  E     +E   +E   +E   +H        +E   E  E   E  E  S  S  S  E  E
|------------------------------|-----------------------------------|
|------------------------------|-----------------------------------|
|------------------------------|----------9--11-12-11h12p11--9-----|
|--8b9---(8)--(8)--(8)--(8)----|--(8)--9-----------------------12--|
|------------------------------|-----------------------------------|
|------------------------------|-----------------------------------|
|
|  W                              +Q     +E   E  E  E        E  E
|------------------------------|-----------------------------------|
|------------------------------|-----------------------------------|
|------------------------------|-----------------------------------|
|--2---------------------------|--(2)----(2)-14-14-12-------12-10--|
|--2---------------------------|--(2)----(2)-14-14-12-------12-10--|
|--0---------------------------|--(0)----(0)-12-12-10-------10--8--|


  1.
  C5                                   D5
                                                         |--3--|
    E  +E   +E   E  E  +E   +E   +E     +E   E  E  E  E  S  S  S  E  E
|------------------------------------|---------10-12-14-12h14p12-10----|
|-/15-(15)-(15)-13-13-(13)-(13)-(13)-|-(13)-10----------------------13-|
|------------------------------------|---------------------------------|
|------------------------------------|---------------------------------|
|------------------------------------|---------------------------------|
|------------------------------------|---------------------------------|
|
|                                                        |--3--|
|   E  +E   +E   E  E  +E   +E   +E     +E   E  E  E  E  S  S  S  E  E
|------------------------------------|---------------------------------|
|------------------------------------|---------------------------------|
|-/16-(16)-(16)-14-14-(14)-(14)-(14)-|-(14)--------9-11--9h11p=9-------|
|------------------------------------|---------12----------------12-10-|
|------------------------------------|------12-------------------------|
|------------------------------------|---------------------------------|
|
|   W                                    W
|------------------------------------|---------------------------------|
|------------------------------------|---------------------------------|
|------------------------------------|---------------------------------|
|--10--------------------------------|--12-----------------------------|
|--10--------------------------------|--12-----------------------------|
|---8--------------------------------|--10-----------------------------|


  E5                                               D5          C5
                         ~~~~
                                                    |--3--|
   E     +E   +E   +E   +H        +E   E  E   E  E  S  S  S  E  E
|-11b12-(11)-(11)-(11)-(11)----|-(11)----12--14-15-14h15p14-12-----||
|------------------------------|------12-----------------------12-o||
|------------------------------|-----------------------------------||
|------------------------------|-----------------------------------||
|------------------------------|----------------------------------o||
|------------------------------|-----------------------------------||
|
|                        ~~~~
|                                                   |--3--|
|  E     +E   +E   +E   +H        +E   E  E   E  E  S  S  S  E  E
|------------------------------|-----------------------------------||
|------------------------------|----------------------------------o||
|--8b9---(8)--(8)--(8)--(8)----|--(8)-----9--11-12-11h12p11--9-----||
|------------------------------|-------9-----------------------12--||
|------------------------------|----------------------------------o||
|------------------------------|-----------------------------------||
|
|  W                              +Q     +E   E  E  E        E  E
|------------------------------|-----------------------------------||
|------------------------------|----------------------------------o||
|------------------------------|-----------------------------------||
|--2---------------------------|--(2)----(2)-14-14-12-------12-10--||
|--2---------------------------|--(2)----(2)-14-14-12-------12-10-o||
|--0---------------------------|--(0)----(0)-12-12-10-------10--8--||


  2.
  C5                                   D5
                                                         |--3--|
    E  +E   +E   E  E  +E   +E   +E     +E   E  E  E  E  S  S  S  E  E
|-/19-(19)-(19)-17-17-(17)-(17)-(17)-|-(17)----10-12-14-12h14p12-10----|
|------------------------------------|------10----------------------13-|
|------------------------------------|---------------------------------|
|------------------------------------|---------------------------------|
|------------------------------------|---------------------------------|
|------------------------------------|---------------------------------|
|
|                                                        |--3--|
|   E  +E   +E   E  E  +E   +E   +E     +E   E  E  E  E  S  S  S  E  E
|------------------------------------|---------------------------------|
|------------------------------------|---------------------------------|
|-/16-(16)-(16)-14-14-(14)-(14)-(14)-|-(14)--------9-11--9h11p=9-------|
|------------------------------------|---------12----------------12-10-|
|------------------------------------|------12-------------------------|
|------------------------------------|---------------------------------|
|
|   W                                    W
|------------------------------------|---------------------------------|
|------------------------------------|---------------------------------|
|------------------------------------|---------------------------------|
|--10--------------------------------|--12-----------------------------|
|--10--------------------------------|--12-----------------------------|
|---8--------------------------------|--10-----------------------------|


  E5                                            D5    C5
                         ~~~~
   E     +E   +E   +E   +H        W
|-11b12-(11)-(11)-(11)-(11)----|-------------------------|
|------------------------------|-------------------------|
|------------------------------|-------------------------|
|------------------------------|-------------------------|
|------------------------------|-------------------------|
|------------------------------|-------------------------|
|
|                        ~~~~
|  E     +E   +E   +E   +H        W
|------------------------------|-------------------------|
|------------------------------|-------------------------|
|--8b9---(8)--(8)--(8)--(8)----|-------------------------|
|------------------------------|-------------------------|
|------------------------------|-------------------------|
|------------------------------|-------------------------|
|
|  W                             +Q   +E   E  E  E  E  E
|------------------------------|-------------------------|
|------------------------------|-------------------------|
|------------------------------|-------------------------|
|--2---------------------------|-(2)--(2)-14-14-12-12-10-|
|--2---------------------------|-(2)--(2)-14-14-12-12-10-|
|--0---------------------------|-(0)--(0)-12-12-10-10--8-|


 Lead 2: Christopher
  C5                                           D5
  Gtr II
                                        ~~~~~~~~~~~~
                                                          |-3-|
   E      +E   +E    S  S   S      +s   Q.      +Q    +S  T T T  E      +Q.     S  S
|--------------------------------------------|---------------------------------------|
|-15-----(15)-(15)---------------------------|---------------------------------------|
|-14b16==(14)-(14)r-14-12-[14]b16-(14)-14----|-(14)--(14)-------14b16==(14)r---14p12-|
|--------------------------------------------|----------------x----------------------|
|--------------------------------------------|--------------x------------------------|
|--------------------------------------------|------------x--------------------------|
|
| Gtr III
|  W                                             W
|--------------------------------------------|---------------------------------------|
|--------------------------------------------|---------------------------------------|
|--------------------------------------------|---------------------------------------|
|-10-----------------------------------------|--12-----------------------------------|
|-10-----------------------------------------|--12-----------------------------------|
|--8-----------------------------------------|--10-----------------------------------|


  E5                                          D5    C5
   Q.    E  E  E  E  E    S   S  H.                   E
|----------------------|-----------------------------------|
|----------------------|-----------------------------------|
|----------------------|----------------------------/14\---|
|-14----12-------------|--------14-------------------------|
|----------12-10-12-10-|-12s=14----------------------------|
|----------------------|-----------------------------------|
|
|  W                     +Q         +E   E  E  E  E   E
|----------------------|-----------------------------------|
|----------------------|-----------------------------------|
|----------------------|-----------------------------------|
|--2-------------------|-(2)--------(2)-14-14-12-12--10----|
|--2-------------------|-(2)--------(2)-14-14-12-12--10----|
|--0-------------------|-(0)--------(0)-12-12-10-10---8----|


  C5                             D5
                         ~~~~~~~~~~~~
   E     +E   +E   +E   +H        Q.   E  E  S S  E  +S      +S
|------------------------------|-------0-------------------------|
|------------------------------|---------------------------------|
|------------------------------|---------------------------------|
|-12b14-(12)-(12)-(12)-(12)----|-12------12-12p9-----------------|
|------------------------------|-----------------12-(12)b14-(12)-|
|------------------------------|---------------------------------|
|
|  W                              W
|------------------------------|---------------------------------|
|------------------------------|---------------------------------|
|------------------------------|---------------------------------|
|-10---------------------------|-12------------------------------|
|-10---------------------------|-12------------------------------|
|--8---------------------------|-10------------------------------|


  E5                                D5      C5
                                 \2
        ~~~~~~~~~~~~~~~~
   S S +H..         +H           E  +E  +E  +E
|-----------------|------------------------------|
|-----------------|------------------------------|
|-----------------|------------------------------|
|-----------------|------------------------------|
|-10-7-(7)--------|-(7)--------------------------|
|-----------------|--------------0--(0)-(0)-(0)--|
|
|  W                +Q   +E   E  E   E   E   E
|-----------------|------------------------------|
|-----------------|------------------------------|
|-----------------|------------------------------|
|--2--------------|-(2)--(2)-14-14--12--12--10---|
|--2--------------|-(2)--(2)-14-14--12--12--10---|
|--0--------------|-(0)--(0)-12-12--10--10---8---|


  C5                      D5
                   ~~
      |-3-|                     |--3--|
   E. T T T  E  E  H       +E   Q  Q  Q  +Q    S     S
|-----------------22----|-(22)-------22-(22)--22b24-22-|
|-----------19-20-------|------19-20-------------------|
|---------x-------------|------------------------------|
|-------x---------------|------------------------------|
|-----x-----------------|------------------------------|
|-----------------------|------------------------------|
|
|  W                        W
|-----------------------|------------------------------|
|-----------------------|------------------------------|
|-----------------------|------------------------------|
|-10--------------------|--12--------------------------|
|-10--------------------|--12--------------------------|
|--8--------------------|--10--------------------------|


  E5                               D5    C5
                       |--3--|
   H..        E    E   S  S  S  E   E  E  E  E  E
|-19------------|---------------------------------|
|------------19-|-20--19h20p19--------------------|
|---------------|--------------21--19-------------|
|---------------|---------------------19-17-------|
|---------------|---------------------------19-17-|
|---------------|---------------------------------|
|
|  W              +Q           +E   E  E  E  E  E
|---------------|---------------------------------|
|---------------|---------------------------------|
|---------------|---------------------------------|
|--2------------|-(2)----------(2)-14-14-12-12-10-|
|--2------------|-(2)----------(2)-14-14-12-12-10-|
|--0------------|-(0)----------(0)-12-12-10-10--8-|


  C5
  Gtr II
         |--3--|  |--3--|  |--3--|  |--3--|  |--3--|
   Q.    S  S  S  S  S  S  S  S  S  S  S  S  S  S  S
|----------------------------------------------------|
|----------------19-20-22-20-19----------------------|
|-------17-19-21----------------21-19-17-------------|
|----------------------------------------21-19-17----|
|-19----------------------------------------------21-|
|----------------------------------------------------|
|
| Gtr I
|  W
|----------------------------------------------------|
|----------------------------------------------------|
|----------------------------------------------------|
|----------------------------------------------------|
|----------------------------------------------------|
|----------------------------------------------------|
|
| Gtr III
|  W
|----------------------------------------------------|
|----------------------------------------------------|
|----------------------------------------------------|
|-10-------------------------------------------------|
|-10-------------------------------------------------|
|--8-------------------------------------------------|


  D5                E5                            D5          C5
                                                   |--3--|
   H      Q    Q     W           +E   E  E   E  E  S  S  S  E  E
|-----------------|-----------|---------12--14-15-14h15p14-12----|
|-----------------|-----------|------12-----------------------12-|
|-----------------|-----------|----------------------------------|
|-------/16--/17--|-----------|----------------------------------|
|-19--------------|-19--------|-(19)-----------------------------|
|-----------------|-----------|----------------------------------|
|
|                                                  |--3--|
|  W                 W            E   E  E   E  E  S  S  S  E  E
|-----------------|-----------|----------------------------------|
|-----------------|-----------|----------------------------------|
|-----------------|-----------|----------9--11-12-11h12p11--9----|
|-----------------|-----------|-------9------------------------9-|
|-----------------|-----------|----------------------------------|
|-----------------|-----------|----------------------------------|
|
|  W                 W           +Q     +E   E  E  E        E  E
|-----------------|-----------|----------------------------------|
|-----------------|-----------|----------------------------------|
|-----------------|-----------|----------------------------------|
|-12--------------|--2--------|--(2)----(2)-14-14-12-------12-10-|
|-12--------------|--2--------|--(2)----(2)-14-14-12-------12-10-|
|-10--------------|--0--------|--(0)----(0)-12-12-10-------10--8-|


   Outro Riff
    C5                      D5
    Gtr I
                                              |--3--|
     E  +E   +E   E  H       +E   E  E  E  E  S  S  S  E  E
||------------------------|---------10-12-14-12h14p12-10----|
||o-15-(15)-(15)-13-13----|-(13)-10----------------------13-|
||------------------------|---------------------------------|
||------------------------|---------------------------------|
||o-----------------------|---------------------------------|
||------------------------|---------------------------------|
|
|   Gtr II
|                                             |--3--|
|    E  +E   +E   E  H       +E   E  E  E  E  S  S  S  E  E
||------------------------|---------------------------------|
||o-----------------------|---------------------------------|
||------------------------|-------------9-11--9h11p=9-------|
||--12-(12)-(12)-10-10----|-(10)----12----------------12-10-|
||o-----------------------|------12-------------------------|
||------------------------|---------------------------------|
|
|   Gtr III
|    W                        W
||------------------------|---------------------------------|
||o-----------------------|---------------------------------|
||------------------------|---------------------------------|
||--10--------------------|--12-----------------------------|
||o-10--------------------|--12-----------------------------|
||---8--------------------|--10-----------------------------|


  E5                                               D5          C5
                         ~~~~
                                                    |--3--|
   E     +E   +E   +E   +H        +E   E  E   E  E  S  S  S  E  E
|------------------------------|---------12--14-15-14h15p14-12-10--|
|-11b12-(11)-(11)-(11)-(11)----|-(11)-12---------------------------|
|------------------------------|-----------------------------------|
|------------------------------|-----------------------------------|
|------------------------------|-----------------------------------|
|------------------------------|-----------------------------------|
|
|                        ~~~~
|                                                   |--3--|
|  E     +E   +E   +E   +H        +E   E  E   E  E  S  S  S  E  E
|------------------------------|-----------------------------------|
|------------------------------|-----------------------------------|
|------------------------------|----------9--11-12-11h12p11--9-----|
|--8b9---(8)--(8)--(8)--(8)----|--(8)--9-----------------------12--|
|------------------------------|-----------------------------------|
|------------------------------|-----------------------------------|
|
|  W                              +Q     +E   E  E  E        E  E
|------------------------------|-----------------------------------|
|------------------------------|-----------------------------------|
|------------------------------|-----------------------------------|
|--2---------------------------|--(2)----(2)-14-14-12-------12-10--|
|--2---------------------------|--(2)----(2)-14-14-12-------12-10--|
|--0---------------------------|--(0)----(0)-12-12-10-------10--8--|


  1.
  C5                                   D5
                                                         |--3--|
    E  +E   +E   E  E  +E   +E   +E     +E   E  E  E  E  S  S  S  E  E
|------------------------------------|---------10-12-14-12h14p12-10----|
|-/15-(15)-(15)-13-13-(13)-(13)-(13)-|-(13)-10----------------------13-|
|------------------------------------|---------------------------------|
|------------------------------------|---------------------------------|
|------------------------------------|---------------------------------|
|------------------------------------|---------------------------------|
|
|                                                        |--3--|
|   E  +E   +E   E  E  +E   +E   +E     +E   E  E  E  E  S  S  S  E  E
|------------------------------------|---------------------------------|
|------------------------------------|---------------------------------|
|-/16-(16)-(16)-14-14-(14)-(14)-(14)-|-(14)--------9-11--9h11p=9-------|
|------------------------------------|---------12----------------12-10-|
|------------------------------------|------12-------------------------|
|------------------------------------|---------------------------------|
|
|   W                                    W
|------------------------------------|---------------------------------|
|------------------------------------|---------------------------------|
|------------------------------------|---------------------------------|
|--10--------------------------------|--12-----------------------------|
|--10--------------------------------|--12-----------------------------|
|---8--------------------------------|--10-----------------------------|


  E5                                               D5          C5
                         ~~~~
                                                    |--3--|
   E     +E   +E   +E   +H        +E   E  E   E  E  S  S  S  E  E
|-11b12-(11)-(11)-(11)-(11)----|-(11)----12--14-15-14h15p14-12-----||
|------------------------------|------12-----------------------12-o||
|------------------------------|-----------------------------------||
|------------------------------|-----------------------------------||
|------------------------------|----------------------------------o||
|------------------------------|-----------------------------------||
|
|                        ~~~~
|                                                   |--3--|
|  E     +E   +E   +E   +H        +E   E  E   E  E  S  S  S  E  E
|------------------------------|-----------------------------------||
|------------------------------|----------------------------------o||
|--8b9---(8)--(8)--(8)--(8)----|--(8)-----9--11-12-11h12p11--9-----||
|------------------------------|-------9-----------------------12--||
|------------------------------|----------------------------------o||
|------------------------------|-----------------------------------||
|
|  W                              +Q     +E   E  E  E        E  E
|------------------------------|-----------------------------------||
|------------------------------|----------------------------------o||
|------------------------------|-----------------------------------||
|--2---------------------------|--(2)----(2)-14-14-12-------12-10--||
|--2---------------------------|--(2)----(2)-14-14-12-------12-10-o||
|--0---------------------------|--(0)----(0)-12-12-10-------10--8--||


  2.                                   H.=H
  C5                                   D5
                                                         |--3--|
    E  +E   +E   E  E  +E   +E   +E     +E   E  E  E  E  S  S  S  E  E
|-/19-(19)-(19)-17-17-(17)-(17)-(17)-|-(17)----10-12-14-12h14p12-10----|
|------------------------------------|------10----------------------13-|
|------------------------------------|---------------------------------|
|------------------------------------|---------------------------------|
|------------------------------------|---------------------------------|
|------------------------------------|---------------------------------|
|
|                                                        |--3--|
|   E  +E   +E   E  E  +E   +E   +E     +E   E  E  E  E  S  S  S  E  E
|------------------------------------|---------------------------------|
|------------------------------------|---------------------------------|
|-/16-(16)-(16)-14-14-(14)-(14)-(14)-|-(14)--------9-11--9h11p=9-------|
|------------------------------------|---------12----------------12-10-|
|------------------------------------|------12-------------------------|
|------------------------------------|---------------------------------|
|
|   W                                    W
|------------------------------------|---------------------------------|
|------------------------------------|---------------------------------|
|------------------------------------|---------------------------------|
|--10--------------------------------|--12-----------------------------|
|--10--------------------------------|--12-----------------------------|
|---8--------------------------------|--10-----------------------------|


  E5
                                        ~~~~
   E     +E   +E   +E   +E   +E   +E   +E
|-11b12-(11)-(11)-(11)-(11)-(11)-(11)-(11)-|
|------------------------------------------|
|------------------------------------------|
|------------------------------------------|
|------------------------------------------|
|------------------------------------------|
|
|                                       ~~~~
|  E     +E   +E   +E   +E   +E   +E   +E
|------------------------------------------|
|------------------------------------------|
|-11b12-(11)-(11)-(11)-(11)-(11)-(11)-(11)-|
|------------------------------------------|
|------------------------------------------|
|------------------------------------------|
|
|  W
|------------------------------------------|
|------------------------------------------|
|------------------------------------------|
|--2---------------------------------------|
|--2---------------------------------------|
|--0---------------------------------------|


 ~~~~~~~~~~~~~~~~~~~~~~~~~~~~~~~~~~
   +W            +W            +W
|-(11)--------|-(11)--------|-(11)----*|
|-------------|-------------|---------*|
|-------------|-------------|---------*|
|-------------|-------------|---------*|
|-------------|-------------|---------*|
|-------------|-------------|---------*|
|
|~~~~~~~~~~~~~~~~~~~~~~~~~~~~~~~~~~
|  +W            +W            +W
|-------------|-------------|---------*|
|-------------|-------------|---------*|
|-(11)--------|-(11)--------|-(11)----*|
|-------------|-------------|---------*|
|-------------|-------------|---------*|
|-------------|-------------|---------*|
|
|  +W            +W            +W
|-------------|-------------|---------*|
|-------------|-------------|---------*|
|-------------|-------------|---------*|
|--(2)--------|--(2)--------|--(2)----*|
|--(2)--------|--(2)--------|--(2)----*|
|--(0)--------|--(0)--------|--(0)----*|



Duration Legend
---------------
W - whole; H - half; Q - quarter; E - 8th; S - 16th; T - 32nd; X - 64th; a - acciaccatura
+ - note tied to previous; . - note dotted; .. - note double dotted
Uncapitalized letters represent notes that are staccato (1/2 duration)
Irregular groupings are notated above the duration line
Duration letters will always appear directly above the note/fret number it represents the
duration for.  Duration letters with no fret number below them represent rests.  Multi-
bar rests are notated in the form Wxn, where n is the number of bars to rest for.  Low
melody durations appear below the staff

Tablature Legend
----------------
 h   - hammer-on
 p   - pull-off
 b   - bend
 pb  - pre-bend
 r   - bend release (if no number after the r, then release immediately)
 /\  - slide into or out of (from/to "nowhere")
 s   - legato slide
 S   - shift slide
 - natural harmonic
[n]  - artificial harmonic
n(n) - tapped harmonic
 ~   - vibrato
 tr  - trill
 T   - tap
 TP  - trem. picking
 PM  - palm muting
\n/  - tremolo bar dip; n = amount to dip
 \n  - tremolo bar down
 n/  - tremolo bar up
/n\  - tremolo bar inverted dip
 =   - hold bend; also acts as connecting device for hammers/pulls
 <> - volume swell (louder/softer)
 x   - on rhythm slash represents muted slash
 o   - on rhythm slash represents single note slash

Misc Legend
-----------
 |  - bar
||  - double bar
||o - repeat start
o|| - repeat end
*|  - double bar (ending)
 :  - bar (freetime)
 $  - Segno
 &  - Coda
Tempo markers -  = BPM(8/16=s8/s16), where s8 = swing 8ths, s16 = swing 16ths

Tap to rate this tab
# A B C D E F G H I J K L M N O P Q R S T U V W X Y Z