Song name
# A B C D E F G H I J K L M N O P Q R S T U V W X Y Z

Arch Enemy - Dead Bury Their Dead tab

#----------------------------------PLEASE NOTE---------------------------------#
#This file is the author's own work and represents their interpretation of the #
#song. You may only use this file for private study, scholarship, or research. #
#------------------------------------------------------------------------------#

DEAD BURY THEIR DEAD
As recorded by Arch Enemy
(From the 2001 Album WAGES OF SIN)

Transcribed by SoggieMufin
	

Words and Music by Arch Enemy

Gtr I (C F Bb Eb G C) - 'Untitled'
Gtr II (C F Bb Eb G C) - 'Untitled'
Gtr III (C F Bb Eb G C) - 'Untitled'
Gtr IV (C F Bb Eb G C) - 'noise'

   Intro
    Q=110
    N.C.    E5    F5   D5        E5                F5   C5        D5
   4/4
    Gtr I
    PM----|   PM|    PM      PM      PM----|   PM|    PM      PM
    S S S S E S S  E S S +S  S S S   S S S S E S S  E S S +S  S S S   4x
||---------------------------------|----------------------------------||
||o--------------------------------|---------------------------------o||
||---------------------------------|----------------------------------||
||----------9-----10---7-(7)---7s9-|---------9-----10---5-(5)---5s7---||
||o---------7------8---5-(5)---5s7-|---------7------8---3-(3)---3s5--o||
||--0-0-0-0---0-0----0-------0-----|-0-0-0-0---0-0----0-------0-------||


            E5    F5   D5        E5          E5    F5   C5        D5
    Gtrs I, II
    PM----|   PM|    PM      PM      PM----|   PM|    PM      PM
    S S S S E S S  E S S +S  S S S   S S S S E S S  E S S +S  S S S  4x
||---------------------------------|---------------------------------||
||o--------------------------------|--------------------------------o||
||---------------------------------|---------------------------------||
||----------9-----10---7-(7)---7s9-|---------9-----10---5-(5)---5s7--||
||o---------7------8---5-(5)---5s7-|---------7------8---3-(3)---3s5-o||
||--0-0-0-0---0-0----0-------0-----|-0-0-0-0---0-0----0-------0------||


  Q=220
  N.C.
  Gtr I
  PM|     PM    PM      PM    PM      PM|     PM    PM      PM    PM
  E E E E E E E E   E E E E E E E E   E E E E E E E E   E E E E E E E E
|-----------------|-----------------|-----------------|-----------------|
|-----------------|-----------------|-----------------|-----------------|
|-----------------|-----------------|-----------------|-----------------|
|-----------------|-----------------|-----------------|-----------------|
|-----5h7---5h7---|-5h7---5h7---5h7-|-----7h8---7h8---|-3h5---3h5---3h5-|
|-0-0-----0-----0-|-----0-----0-----|-0-0-----0-----0-|-----0-----0-----|


  PM|     PM    PM      PM    PM      PM|     PM    PM      PM    PM
  E E E E E E E E   E E E E E E E E   E E E E E E E E   E E E E E E q
|-----------------|-----------------|-----------------|----------------|
|-----------------|-----------------|-----------------|----------------|
|-----------------|-----------------|-----------------|----------------|
|-----------------|-----------------|-----------------|----------------|
|-----5h7---5h7---|-5h7---5h7---5h7-|-----7h8---7h8---|-3h5---3h5---3--|
|-0-0-----0-----0-|-----0-----0-----|-0-0-----0-----0-|-----0-----0----|


   Verse
    N.C.
    Gtrs I, II
    PM|     PM    PM      PM    PM      PM|     PM    PM      PM    PM
    E E E E E E E E   E E E E E E E E   E E E E E E E E   E E E E E E E E
||------------------|-----------------|-----------------|-------------------||
||o-----------------|-----------------|-----------------|------------------o||
||------------------|-----------------|-----------------|-------------------||
||------------------|-----------------|-----------------|-------------------||
||o-----5h7---5h7---|-5h7---5h7---5h7-|-----7h8---7h8---|-3h5---3h5---3h5--o||
||--0-0-----0-----0-|-----0-----0-----|-0-0-----0-----0-|-----0-----0-------||


    Gtr II
    E E E  E E E  E E   E  E E E  E E E  E
||--------------------|--------------------|
||o-------------------|--------------------|
||--------------------|--------------------|
||--------------------|--------------------|
||o-----8h11---8h11---|-8h11---8h11---8h11-|
||--0-0------0------0-|------0------0------|
|
|   Gtr I
|   PM|      PM     PM       PM     PM
|   E E E  E E E  E E   E  E E E  E E E  E
||--------------------|--------------------|
||o-------------------|--------------------|
||--------------------|--------------------|
||--------------------|--------------------|
||o-----5h=7---5h=7---|-5h=7---5h=7---5h=7-|
||--0-0------0------0-|------0------0------|


  E E  E  E E  E  E E   E E E E E E E E
|---------------------|-------------------||
|---------------------|------------------o||
|---------------------|-------------------||
|---------------------|-------------------||
|-----11h12---11h12---|-7h8---7h8---7h8--o||
|-0-0-------0-------0-|-----0-----0-------||
|
| PM|       PM      PM      PM    PM
| E E  E  E E  E  E E   E E E E E E E E
|---------------------|-------------------||
|---------------------|------------------o||
|---------------------|-------------------||
|---------------------|-------------------||
|------7h=8----7h=8---|-3h5---3h5---3h5--o||
|-0-0-------0-------0-|-----0-----0-------||


   Chorus
    Q=110
    N.C.
    Gtrs I, II
    |----6----| |----6----| |----6----| |----6----|
    S S S S S S S S S S S S S S S S S S S S S S S S
||--------------------------------------------------|
||o-------------------------------------------------|
||--------------------------------------------------|
||--------------2-2-2-2-2-2-1-1-1-1-1-1-------------|
||o-------------------------------------3-3-3-3-3-3-|
||--0-0-0-0-0-0-------------------------------------|


  |----6----| |----6----| |----6----| |----6----|
  S S S S S S S S S S S S S S S S S S S S S S S S
|---------------------------------------------------||
|--------------------------------------------------o||
|---------------------------------------------------||
|-------------2-2-2-2-2-2-1-1-1-1-1-1---------------||
|--------------------------------------------------o||
|-0-0-0-0-0-0-------------------------1-1-1-1-1-1---||


 Solo One
      Q=220
  N.C.
  Gtr III
  \1___/     |
             ~~~~~~~~~~~~~~~~~~
  a   +Q    +H.            +W
|------------------------|------------------|
|------------------------|------------------|
|------------------------|------------------|
|-9---(9)---(9)----------|-(9)--------------|
|------------------------|------------------|
|------------------------|------------------|
|
|     Gtrs I, II
|      PM-|      PM    PM       PM    PM
|      E  E  E E E E E E    E E E E E E E E
|------------------------|------------------|
|------------------------|------------------|
|------------------------|------------------|
|------------------------|------------------|
|------------5h7---5h7---|--5h7---5h7---5h7-|
|------0--0------0-----0-|------0-----0-----|


   \1____/      |
                ~~~~~~~~~~~~~~~~~~~
   a    +Q     +H.             +W
|-19---(19)---(19)----------|-(19)--------------|
|---------------------------|-------------------|
|---------------------------|-------------------|
|---------------------------|-------------------|
|---------------------------|-------------------|
|---------------------------|-------------------|
|
|        PM-|       PM    PM        PM    PM
|        E  E   E E E E E E     E E E E E E E E
|---------------------------|-------------------|
|---------------------------|-------------------|
|---------------------------|-------------------|
|---------------------------|-------------------|
|---------------7h8---7h8---|---3h5---3h5---3h5-|
|--------0--0-------0-----0-|-------0-----0-----|


                              Gtr IV
   \1____/      |
                ~~~~          TP
   a    +Q     +H.            W
|-13---(13)---(13)----------|-----------------|
|-12---(12)---(12)----------|-----------------|
|---------------------------|-----------------|
|---------------------------|-----------------|
|---------------------------|-x\--------------|
|---------------------------|-x\--------------|
|
|        PM-|       PM    PM      PM    PM
|        E  E   E E E E E E   E E E E E E E E
|---------------------------|-----------------|
|---------------------------|-----------------|
|---------------------------|-----------------|
|---------------------------|-----------------|
|---------------5h7---5h7---|-5h7---5h7---5h7-|
|--------0--0-------0-----0-|-----0-----0-----|


  Gtr III
   H            H             H           E  E E  E
|-12tr13-------10tr12-------|-7tr10-------7----------|
|---------------------------|---------------10-6-10--|
|---------------------------|------------------------|
|---------------------------|------------------------|
|---------------------------|------------------------|
|---------------------------|------------------------|
|
|  PM----|      PM        PM          PM     PM
|  E     E E E  E     E E E   E     E E E E  E E  E
|---------------------------|------------------------|
|---------------------------|------------------------|
|---------------------------|------------------------|
|---------------------------|------------------------|
|----------7h8--------7h8---|-3h====5---3h5----3h=5--|
|--0-----0------0---------0-|---------0------0-------|


 Verse
  N.C.
   >
   W                    W
|---------------------|--------------------|
|-[9]-----------------|--------------------|
|---------------------|--------------------|
|---------------------|--------------------|
|---------------------|--------------------|
|---------------------|--------------------|
|
| Gtr I
|  E  E E  E E E  E E   E  E E E  E E E  E
|---------------------|--------------------|
|---------------------|--------------------|
|---------------------|--------------------|
|---------------------|--------------------|
|-------8h11---8h11---|-8h11---8h11---8h11-|
|--0--0------0------0-|------0------0------|
|
| Gtr II
|  PM-|      PM     PM       PM     PM
|  E  E E  E E E  E E   E  E E E  E E E  E
|---------------------|--------------------|
|---------------------|--------------------|
|---------------------|--------------------|
|---------------------|--------------------|
|-------5h=7---5h=7---|-5h=7---5h=7---5h=7-|
|--0--0------0------0-|------0------0------|


  W                     W
|---------------------|-----------------|
|---------------------|-----------------|
|---------------------|-----------------|
|---------------------|-----------------|
|---------------------|-----------------|
|---------------------|-----------------|
|
| E E  E  E E  E  E E   E E E E E E E E
|---------------------|-----------------|
|---------------------|-----------------|
|---------------------|-----------------|
|---------------------|-----------------|
|-----11h12---11h12---|-7h8---7h8---7h8-|
|-0-0-------0-------0-|-----0-----0-----|
|
| PM|       PM      PM      PM    PM
| E E  E  E E  E  E E   E E E E E E E E
|---------------------|-----------------|
|---------------------|-----------------|
|---------------------|-----------------|
|---------------------|-----------------|
|------7h=8----7h=8---|-3h5---3h5---3h5-|
|-0-0-------0-------0-|-----0-----0-----|


  Gtr I
  E E E  E E E  E E   E  E E E  E E E  E
|-------------------|--------------------|
|-------------------|--------------------|
|-------------------|--------------------|
|-------------------|--------------------|
|-----8h11---8h11---|-8h11---8h11---8h11-|
|-0-0------0------0-|------0------0------|
|
| Gtr II
| PM|      PM     PM       PM     PM
| E E E  E E E  E E   E  E E E  E E E  E
|-------------------|--------------------|
|-------------------|--------------------|
|-------------------|--------------------|
|-------------------|--------------------|
|-----5h=7---5h=7---|-5h=7---5h=7---5h=7-|
|-0-0------0------0-|------0------0------|


  E E  E  E E  E  E E   E E E E E E E E
|---------------------|-----------------|
|---------------------|-----------------|
|---------------------|-----------------|
|---------------------|-----------------|
|-----11h12---11h12---|-7h8---7h8---7h8-|
|-0-0-------0-------0-|-----0-----0-----|
|
| PM|       PM      PM      PM    PM
| E E  E  E E  E  E E   E E E E E E E E
|---------------------|-----------------|
|---------------------|-----------------|
|---------------------|-----------------|
|---------------------|-----------------|
|------7h=8----7h=8---|-3h5---3h5---3h5-|
|-0-0-------0-------0-|-----0-----0-----|


   Chorus
    Q=110
    N.C.
    Gtrs I, II
    |----6----| |----6----| |----6----| |----6----|
    S S S S S S S S S S S S S S S S S S S S S S S S
||--------------------------------------------------|
||o-------------------------------------------------|
||--------------------------------------------------|
||--------------2-2-2-2-2-2-1-1-1-1-1-1-------------|
||o-------------------------------------3-3-3-3-3-3-|
||--0-0-0-0-0-0-------------------------------------|


  |----6----| |----6----| |----6----| |----6----|
  S S S S S S S S S S S S S S S S S S S S S S S S
|---------------------------------------------------||
|--------------------------------------------------o||
|---------------------------------------------------||
|-------------2-2-2-2-2-2-1-1-1-1-1-1---------------||
|--------------------------------------------------o||
|-0-0-0-0-0-0-------------------------1-1-1-1-1-1---||


    Q=98
    PM-----------------------------------------------
    T T S T T S T T S T T S T T S T T S T T S T T S
||--------------------------------------------------|
||o-------------------------------------------------|
||--------------------------------------------------|
||--------------2-2-2-2-2-2-1-1-1-1-1-1-------------|
||o-------------------------------------3-3-3-3-3-3-|
||--0-0-0-0-0-0-------------------------------------|


 -----------------------------------------------|
  T T S T T S T T S T T S T T S T T S T T S T T S
|---------------------------------------------------||
|--------------------------------------------------o||
|---------------------------------------------------||
|-------------2-2-2-2-2-2-1-1-1-1-1-1---------------||
|--------------------------------------------------o||
|-0-0-0-0-0-0-------------------------1-1-1-1-1-1---||


   Interlude
    Q=220
    N.C.
    PM------------------------------------------------------------------|
    E E E E E E E E   E E E E E E E E   E E E E E E E E   E E E E E E E E
||------------------|-----------------|-----------------|------------------|
||o-----------------|-----------------|-----------------|------------------|
||------------------|-----------------|-----------------|------------------|
||------------------|-----------------|-----------------|------------------|
||o-----------------|-----------------|-5-5-5-5-5-5-5-5-|-5-5-5-5-5-5-5-5--|
||--0-0-0-0-0-0-0-0-|-0-0-0-0-0-0-0-0-|-----------------|------------------|


  PM------------------------------------------------------------------|
  E E E E E E E E   E E E E E E E E   E E E E E E E E   E E E E E E E E
|-----------------|-----------------|-----------------|------------------||
|-----------------|-----------------|-----------------|-----------------o||
|-----------------|-----------------|-----------------|------------------||
|-----------------|-2---------------|-----------------|------------------||
|-3-3-3-3-3-3-3-3-|---5-3-2-5-3-2-3-|-0-0-0-0-0-0-0-0-|-2-2-2-2-2-2-2-2-o||
|-----------------|-----------------|-----------------|------------------||


 Solo Two
  E5                                          D5
  Gtr III
   H         H           H         H          H        H          W
|-12tr15--------------|-12tr15--------------|------------------|--------|
|-----------12tr15----|-----------12tr15----|------------------|--------|
|---------------------|---------------------|-9tr12----7tr9----|--------|
|---------------------|---------------------|------------------|--9-----|
|---------------------|---------------------|------------------|--------|
|---------------------|---------------------|------------------|--------|
|
| Gtrs I, II
|  W                    +W                    W                  +W
|---------------------|---------------------|------------------|--------|
|---------------------|---------------------|------------------|--------|
|---------------------|---------------------|------------------|--------|
|---------------------|---------------------|-7----------------|-(7)----|
|--2------------------|-(2)-----------------|-5----------------|-(5)----|
|--0------------------|-(0)-----------------|------------------|--------|


  C5                               A5                 B5
   Q.    Q.   Q     Q.   Q.   Q      Q.    Q.    Q      W
|----------------|---------------|------------------|--------|
|----------------|---------------|------------------|--------|
|----------------|-------7----9--|-/12----11--------|--------|
|-------------7--|--9------------|--------------12--|-/14----|
|-/7----10-------|---------------|------------------|--------|
|----------------|---------------|------------------|--------|
|
|  W               +W                W                  W
|----------------|---------------|------------------|--------|
|----------------|---------------|------------------|--------|
|----------------|---------------|------------------|--------|
|--5-------------|-(5)-----------|---2--------------|---4----|
|--3-------------|-(3)-----------|---0--------------|---2----|
|----------------|---------------|------------------|--------|


  E5                              D/F#
    Q.    Q.    Q     W             Q.    Q.    Q     W
|-/19----15--------|------------|-/19----15--------|-17-----|
|--------------17--|-17---------|--------------17--|--------|
|------------------|------------|------------------|--------|
|------------------|------------|------------------|--------|
|------------------|------------|------------------|--------|
|------------------|------------|------------------|--------|
|
|   W                +W             W                +W
|------------------|------------|------------------|--------|
|------------------|------------|------------------|--------|
|------------------|------------|------------------|--------|
|------------------|------------|------------------|--------|
|---2--------------|-(2)--------|---5--------------|-(5)----|
|---0--------------|-(0)--------|---2--------------|-(2)----|


  C5/G
         |--3--|                |--3---|
   E  E  E  E  E  E  E  E  E    E   E  E  E  E  E  E  E  E
|----------------------------|-----------------------------|
|----------------------------|-----------------------------|
|-16-17-16h17p16-14-16-14----|-----14----------------------|
|-------------------------17-|-16-----17-16-14-16-14-------|
|----------------------------|-----------------------17-14-|
|----------------------------|-----------------------------|
|
|  W                           +W
|----------------------------|-----------------------------|
|----------------------------|-----------------------------|
|----------------------------|-----------------------------|
|----------------------------|-----------------------------|
|--3-------------------------|-(3)-------------------------|
|--3-------------------------|-(3)-------------------------|


  A5                      B5
   E  E  E  E  E  E  Q     H        +H
|-----------------------|----------------------|
|-----------------------|----------------------|
|-----------------------|----------------------|
|-----------------------|----------------------|
|-17-14-----------------|----------------------|
|-------17-15-17-15-17--|-17b19----(17)pb19----|
|
|  W                       W
|-----------------------|----------------------|
|-----------------------|----------------------|
|-----------------------|----------------------|
|-----------------------|----------------------|
|--7--------------------|--9-------------------|
|--5--------------------|--7-------------------|


 Tapping Ahoy!
  N.C.  (Am)
  Gtr I
   |--3--|  |--3--|  |--3--|  |--3--|    |--3--|  |--3--|  |--3--|  |--3--|
   E  E  E  E  E  E  E  E  E  E  E  E    E  E  E  E  E  E  E  E  E  E  E  E
|-------------------------------------|-------------------------------------|
|-17-10-13-17-10-13-17-10-13-17-10-13-|-17-10-13-17-10-13-17-10-13-17-10-13-|
|-------------------------------------|-------------------------------------|
|-------------------------------------|-------------------------------------|
|-------------------------------------|-------------------------------------|
|-------------------------------------|-------------------------------------|
|
| Gtr II
|  |--3--|  |--3--|  |--3--|  |--3--|    |--3--|  |--3--|  |--3--|  |--3--|
|  E  E  E  E  E  E  E  E  E  E  E  E    E  E  E  E  E  E  E  E  E  E  E  E
|-------------------------------------|-------------------------------------|
|-------------------------------------|-------------------------------------|
|-17--9-14-17--9-14-17--9-14-17--9-14-|-17--9-14-17--9-14-17--9-14-17--9-14-|
|-------------------------------------|-------------------------------------|
|-------------------------------------|-------------------------------------|
|-------------------------------------|-------------------------------------|


  (Asus2)
   |--3--|  |--3--|  |--3--|  |--3--|
   E  E  E  E  E  E  E  E  E  E  E  E
|--------------------------------------|
|-17-10-12-17-10-12-17-10-12-17-10-12--|
|--------------------------------------|
|--------------------------------------|
|--------------------------------------|
|--------------------------------------|
|
|  |--3--|  |--3--|  |--3--|  |--3--|
|  E  E  E  E  E  E  E  E  E  E  E  E
|--------------------------------------|
|--------------------------------------|
|-16--9-14-16--9-14-16--9-14-16--9-14--|
|--------------------------------------|
|--------------------------------------|
|--------------------------------------|


  (E)                               (Em)
   |-3--|  |-3--|  |-3--|  |-3--|    |-3--|  |-3--|  |-3--|  |-3--|
   E E  E  E E  E  E E  E  E E  E    E E  E  E E  E  E E  E  E E  E
|---------------------------------|---------------------------------|
|-17-9-12-17-9-12-17-9-12-17-9-12-|-17-8-12-17-8-12-17-8-12-17-8-12-|
|---------------------------------|---------------------------------|
|---------------------------------|---------------------------------|
|---------------------------------|---------------------------------|
|---------------------------------|---------------------------------|
|
|  |-3--|  |-3--|  |-3--|  |-3--|    |-3--|  |-3--|  |-3--|  |-3--|
|  E E  E  E E  E  E E  E  E E  E    E E  E  E E  E  E E  E  E E  E
|---------------------------------|---------------------------------|
|---------------------------------|---------------------------------|
|-16-9-13-16-9-13-16-9-13-16-9-13-|-16-9-12-16-9-12-16-9-12-16-9-12-|
|---------------------------------|---------------------------------|
|---------------------------------|---------------------------------|
|---------------------------------|---------------------------------|


   |-3--|  |-3--|  |-3--|  |-3--|
   E E  E  E E  E  E E  E  E E  E
|----------------------------------|
|-17-8-12-17-8-12-17-8-12-17-8-12--|
|----------------------------------|
|----------------------------------|
|----------------------------------|
|----------------------------------|
|
|  |-3--|  |-3--|  |-3--|  |-3--|
|  E E  E  E E  E  E E  E  E E  E
|----------------------------------|
|----------------------------------|
|-16-9-12-16-9-12-16-9-12-16-9-12--|
|----------------------------------|
|----------------------------------|
|----------------------------------|


  (Esus2)                           (B)
   |-3--|  |-3--|  |-3--|  |-3--|    |-3--|  |-3--|  |-3--|  |-3--|
   E E  E  E E  E  E E  E  E E  E    E E  E  E E  E  E E  E  E E  E
|---------------------------------|---------------------------------|
|-17-7-12-17-7-12-17-7-12-17-7-12-|-16-7-12-16-7-12-16-7-12-16-7-12-|
|---------------------------------|---------------------------------|
|---------------------------------|---------------------------------|
|---------------------------------|---------------------------------|
|---------------------------------|---------------------------------|
|
|  |-3--|  |-3--|  |-3--|  |-3--|    |-3--|  |-3--|  |-3--|  |-3--|
|  E E  E  E E  E  E E  E  E E  E    E E  E  E E  E  E E  E  E E  E
|---------------------------------|---------------------------------|
|---------------------------------|---------------------------------|
|-16-9-11-16-9-11-16-9-11-16-9-11-|-16-8-11-16-8-11-16-8-11-16-8-11-|
|---------------------------------|---------------------------------|
|---------------------------------|---------------------------------|
|---------------------------------|---------------------------------|


  (Am)
   |--3--|  |--3--|  |--3--|  |--3--|
   E  E  E  E  E  E  E  E  E  E  E  E
|--------------------------------------|
|-17-10-13-17-10-13-17-10-13-17-10-13--|
|--------------------------------------|
|--------------------------------------|
|--------------------------------------|
|--------------------------------------|
|
|  |--3--|  |--3--|  |--3--|  |--3--|
|  E  E  E  E  E  E  E  E  E  E  E  E
|--------------------------------------|
|--------------------------------------|
|-17--9-14-17--9-14-17--9-14-17--9-14--|
|--------------------------------------|
|--------------------------------------|
|--------------------------------------|


                    (Dm)     (Am)
   |--3--|  |--3--|  |--3--|  |--3--|
   E  E  E  E  E  E  E  E  E  E  E  E
|-------------------------------------|
|-17-10-13-17-10-13-18-10-13-17-10-13-|
|-------------------------------------|
|-------------------------------------|
|-------------------------------------|
|-------------------------------------|
|
|  |--3--|  |--3--|  |--3--|  |--3--|
|  E  E  E  E  E  E  E  E  E  E  E  E
|-------------------------------------|
|-------------------------------------|
|-17--9-14-17--9-14-19--9-14-17--9-14-|
|-------------------------------------|
|-------------------------------------|
|-------------------------------------|


  (Asus2)                               (E)
   |--3--|  |--3--|  |--3--|  |--3--|    |-3--|  |-3--|  |-3--|  |-3--|
   E  E  E  E  E  E  E  E  E  E  E  E    E E  E  E E  E  E E  E  E E  E
|-------------------------------------|----------------------------------|
|-17-10-12-17-10-12-17-10-12-17-10-12-|-17-9-12-17-9-12-17-9-12-17-9-12--|
|-------------------------------------|----------------------------------|
|-------------------------------------|----------------------------------|
|-------------------------------------|----------------------------------|
|-------------------------------------|----------------------------------|
|
|  |--3--|  |--3--|  |--3--|  |--3--|    |-3--|  |-3--|  |-3--|  |-3--|
|  E  E  E  E  E  E  E  E  E  E  E  E    E E  E  E E  E  E E  E  E E  E
|-------------------------------------|----------------------------------|
|-------------------------------------|----------------------------------|
|-16--9-14-16--9-14-16--9-14-16--9-14-|-16-9-13-16-9-13-16-9-13-16-9-13--|
|-------------------------------------|----------------------------------|
|-------------------------------------|----------------------------------|
|-------------------------------------|----------------------------------|


  (Em)
   |-3--|  |-3--|  |-3--|  |-3--|    |-3--|  |-3--|  |-3--|  |-3--|
   E E  E  E E  E  E E  E  E E  E    E E  E  E E  E  E E  E  E E  E
|---------------------------------|---------------------------------|
|-17-8-12-17-8-12-17-8-12-17-8-12-|-17-8-12-17-8-12-17-8-12-17-8-12-|
|---------------------------------|---------------------------------|
|---------------------------------|---------------------------------|
|---------------------------------|---------------------------------|
|---------------------------------|---------------------------------|
|
|  |-3--|  |-3--|  |-3--|  |-3--|    |-3--|  |-3--|  |-3--|  |-3--|
|  E E  E  E E  E  E E  E  E E  E    E E  E  E E  E  E E  E  E E  E
|---------------------------------|---------------------------------|
|---------------------------------|---------------------------------|
|-16-9-12-16-9-12-16-9-12-16-9-12-|-16-9-12-16-9-12-16-9-12-16-9-12-|
|---------------------------------|---------------------------------|
|---------------------------------|---------------------------------|
|---------------------------------|---------------------------------|


  (B)
                                                    Gtr IV
                                                     TP
   |-3--|  |-3--|  |-3--|  |-3--|    |-3--|  |-3--|
   E E  E  E E  E  E E  E  E E  E    E E  E  E E  E  H
|---------------------------------|------------------------|
|-17-7-12-17-7-12-17-7-12-17-7-12-|-16-7-12-16-7-12--------|
|---------------------------------|------------------------|
|---------------------------------|------------------------|
|---------------------------------|------------------x\----|
|---------------------------------|------------------x\----|
|
|  |-3--|  |-3--|  |-3--|  |-3--|    |-3--|  |-3--|
|  E E  E  E E  E  E E  E  E E  E    E E  E  E E  E  H
|---------------------------------|------------------------|
|---------------------------------|------------------------|
|-16-9-11-16-9-11-16-9-11-16-9-11-|-16-8-11-16-8-11--------|
|---------------------------------|-----------------13\----|
|---------------------------------|------------------------|
|---------------------------------|------------------------|


 Solo Three
  Q=110
  N.C.      E5    F5   D5        E5                    F5     C5        D5
  Gtr III
  \4__________________________________/
  W                                   Q        +Q.         Q.
|----------------------------------|--------------------------------------|
|----------------------------------|-15-------(15)------------------------|
|----------------------------------|--------------------------------------|
|----------------------------------|--------------------------------------|
|----------------------------------|----------------------12\-------------|
|-0--------------------------------|----------------------12\-------------|
|
| PM------|   PM|    PM      PM       PM----|      PM|     PM       PM
| S   S S S E S S  E S S +S  S S S    S S S S   E  S S  E  S  S +S  S S S
|----------------------------------|--------------------------------------|
|----------------------------------|--------------------------------------|
|----------------------------------|--------------------------------------|
|-----------9-----10---7-(7)---7s9-|------------9------10-----5-(5)---5s7-|
|-----------7------8---5-(5)---5s7-|------------7-------8-----3-(3)---3s5-|
|-0---0-0-0---0-0----0-------0-----|--0-0-0-0------0-0-----0--------0-----|


  N.C.    E5      F5     D5        E5                   F5    C5        D5
                                                      ~~~~~~
  S S S S S S S S  S S S S  S  S S S   S S S S S S  S S +H
|------------------------------------|------------------------------------|
|------------------------------------|------------------------------------|
|------------------------------------|---------7-9-10-9-(9)---------------|
|--------------------------------6-7-|---6-7-9----------------------------|
|------------------5-7---5--7--8-----|-8----------------------------------|
|-4-5-4-7-5-4-5-7------7-------------|------------------------------------|
|
| PM----|     PM|      PM      PM      PM----|      PM|     PM      PM
| S S S S E   S S  E   S S +S  S S S   S S S S E    S S  E  S S +S  S S S
|------------------------------------|------------------------------------|
|------------------------------------|------------------------------------|
|------------------------------------|------------------------------------|
|---------9-------10-----7-(7)---7s9-|---------9--------10----5-(5)---5s7-|
|---------7--------8-----5-(5)---5s7-|---------7---------8----3-(3)---3s5-|
|-0-0-0-0-----0-0------0-------0-----|-0-0-0-0------0-0-----0-------0-----|


  N.C.        E5    F5          D5              E5
   ~~~~~
                     |--3--|
   H                 S  S  S  S  S  S   S  S     +S
|-------------------12-13-12----12-13--16-13b16-(13)-|
|-15b17----------------------15----------------------|
|----------------------------------------------------|
|----------------------------------------------------|
|----------------------------------------------------|
|----------------------------------------------------|
|
|  PM-------|   PM|           PM        PM
|  S    S S S E S S  E        S  S +S   S  S      S
|----------------------------------------------------|
|----------------------------------------------------|
|----------------------------------------------------|
|-------------9-----10-----------7-(7)-----7s=====9--|
|-------------7------8-----------5-(5)-----5s=====7--|
|--0----0-0-0---0-0-----------0---------0------------|


                          F5   C5        D5
                           ~~
   S  S  S  S  S  S  S  S  H
|-12---------------------------------------|
|----15-13-12-15-13-12---------------------|
|----------------------14-13---------------|
|------------------------------------------|
|------------------------------------------|
|------------------------------------------|
|
|  PM------|         PM|     PM      PM
|  S  S  S  S  E     S  S  E S S +S  S S S
|------------------------------------------|
|------------------------------------------|
|------------------------------------------|
|--------------9----------10---5-(5)---5s7-|
|--------------7-----------8---3-(3)---3s5-|
|--0--0--0--0--------0--0----0-------0-----|


  N.C.          E5        F5   D5        E5
         |-3--|
   S  S  E    S  H                Q
|-19-16------16-19b22------------19--------|
|-------17---------------------------------|
|------------------------------------------|
|------------------------------------------|
|------------------------------------------|
|------------------------------------------|
|
|  PM------|          PM|    PM      PM
|  S  S  S S     E    S S  E S S +S  S S S
|------------------------------------------|
|------------------------------------------|
|------------------------------------------|
|----------------9--------10---7-(7)---7s9-|
|----------------7---------8---5-(5)---5s7-|
|--0--0--0-0----------0-0----0-------0-----|


                          F5    C5         D5
   Q           E     S  S  E  E    E     E
|-22b24-------22b24-22p19--------------------|
|-------------------------20-21---22----21---|
|--------------------------------------------|
|--------------------------------------------|
|--------------------------------------------|
|--------------------------------------------|
|
|  PM-------|        PM|      PM      PM
|  S    S S S  E     S  S  E  S S +S  S  S S
|--------------------------------------------|
|--------------------------------------------|
|--------------------------------------------|
|--------------9----------10----5-(5)----5s7-|
|--------------7-----------8----3-(3)----3s5-|
|--0----0-0-0--------0--0-----0-------0------|


 Breakdown
  N.C.                                F5/C
   Q   Q  H      Wx6          H.       Q
|--------------|------------|--------------|
|-18s=21-------|------------|--------------|
|--------------|------------|--------------|
|--------------|------------|--------------|
|--------------|------------|---------/8\--|
|--------------|------------|---------/8\--|


            E5    F5   D5        E5          C     F5   C5        D5
    PM----|   PM|    PM      PM      PM----|   PM|    PM      PM
    S S S S E S S  E S S +S  S S S   S S S S E S S  E S S +S  S S S  4x
||---------------------------------|---------------------------------||
||o--------------------------------|--------------------------------o||
||---------------------------------|---------------------------------||
||----------9-----10---7-(7)---7s9-|---------9-----10---5-(5)---5s7--||
||o---------7------8---5-(5)---5s7-|---------7------8---3-(3)---3s5-o||
||--0-0-0-0---0-0----0-------0-----|-0-0-0-0---0-0----0-------0------||


   Chorus
    N.C.
    |----6----| |----6----| |----6----| |----6----|
    S S S S S S S S S S S S S S S S S S S S S S S S
||--------------------------------------------------|
||o-------------------------------------------------|
||--------------------------------------------------|
||--------------2-2-2-2-2-2-1-1-1-1-1-1-------------|
||o-------------------------------------3-3-3-3-3-3-|
||--0-0-0-0-0-0-------------------------------------|


  |----6----| |----6----| |----6----| |----6----|
  S S S S S S S S S S S S S S S S S S S S S S S S
|---------------------------------------------------||
|--------------------------------------------------o||
|---------------------------------------------------||
|-------------2-2-2-2-2-2-1-1-1-1-1-1---------------||
|--------------------------------------------------o||
|-0-0-0-0-0-0-------------------------1-1-1-1-1-1---||


 Outro
  E5     D#5C5   E5     D#5F5   E5     D#5C5   E5     D#5F5
  Q   Q  Q  Q    Q   Q  Q  Q    Q   Q  Q  Q    Q   Q  Q  Q
|--------------|--------------|--------------|--------------|
|--------------|--------------|--------------|--------------|
|--------------|--------------|--------------|--------------|
|----/9--8--5--|----/9--8-----|----/9--8--5--|----/9--8-----|
|-2--/7--6--3--|-2--/7--6--3--|-2--/7--6--3--|-2--/7--6--3--|
|-0------------|-0---------1--|-0------------|-0---------1--|


    Q=98
    N.C.
    PM-----------------------------------------------
    T T S T T S T T S T T S T T S T T S T T S T T S
||--------------------------------------------------|
||o-------------------------------------------------|
||--------------------------------------------------|
||--------------2-2-2-2-2-2-1-1-1-1-1-1-------------|
||o-------------------------------------3-3-3-3-3-3-|
||--0-0-0-0-0-0-------------------------------------|


 -----------------------------------------------|
  T T S T T S T T S T T S T T S T T S T T S T T S
|---------------------------------------------------||
|--------------------------------------------------o||
|---------------------------------------------------||
|-------------2-2-2-2-2-2-1-1-1-1-1-1---------------||
|--------------------------------------------------o||
|-0-0-0-0-0-0-------------------------1-1-1-1-1-1---||



Duration Legend
---------------
W - whole; H - half; Q - quarter; E - 8th; S - 16th; T - 32nd; X - 64th; a - acciaccatura
+ - note tied to previous; . - note dotted; .. - note double dotted
Uncapitalized letters represent notes that are staccato (1/2 duration)
Irregular groupings are notated above the duration line
Duration letters will always appear directly above the note/fret number it represents the
duration for.  Duration letters with no fret number below them represent rests.  Multi-
bar rests are notated in the form Wxn, where n is the number of bars to rest for.  Low
melody durations appear below the staff

Tablature Legend
----------------
 h   - hammer-on
 p   - pull-off
 b   - bend
 pb  - pre-bend
 r   - bend release (if no number after the r, then release immediately)
 /\  - slide into or out of (from/to "nowhere")
 s   - legato slide
 S   - shift slide
 - natural harmonic
[n]  - artificial harmonic
n(n) - tapped harmonic
 ~   - vibrato
 tr  - trill
 T   - tap
 TP  - trem. picking
 PM  - palm muting
\n/  - tremolo bar dip; n = amount to dip
 \n  - tremolo bar down
 n/  - tremolo bar up
/n\  - tremolo bar inverted dip
 =   - hold bend; also acts as connecting device for hammers/pulls
 <> - volume swell (louder/softer)
 x   - on rhythm slash represents muted slash
 o   - on rhythm slash represents single note slash

Misc Legend
-----------
 |  - bar
||  - double bar
||o - repeat start
o|| - repeat end
*|  - double bar (ending)
 :  - bar (freetime)
 $  - Segno
 &  - Coda
Tempo markers -  = BPM(8/16=s8/s16), where s8 = swing 8ths, s16 = swing 16ths

Tap to rate this tab
# A B C D E F G H I J K L M N O P Q R S T U V W X Y Z