Song name
# A B C D E F G H I J K L M N O P Q R S T U V W X Y Z

Arch Enemy - Eureka tab

             Eureka By Arch Enemy
          Off The Album Black Earth
           Tabbed By : ShankMetal

For Questions, Comments, Or Corrections Email Me: ShankMetal@yahoo.com

..  - palm mute          /  - slide up to
 \  - slide down to      ~  - vibrato
 h  - hammer on          b  - bend
 p  - pull off

I Only Have One Guitar Part Tabbed Out Right Now, I'll Add The 2nd Later.

(Eureka)

Riff A
C#|--------------------------------------------------------------------|
G#|--------------------------------------------------------------------|
E |--------------------------------------------------------------------|
B |--------------------------------------------------------------------|
F#|-5-5-5-5-5-8-8-8-3-3-3-3-1-1-1---5-5-5-5-5-8-8-8-1-1-1-1-3-3-3------|
B |-5-5-5-5-5-8-8-8-3-3-3-3-1-1-1---5-5-5-5-5-8-8-8-1-1-1-1-3-3-3------|
|
|--------------------------------------------------------------------|
|--------------------------------------------------------------------|
|--------------------------------------------------------------------| 
|--------------------------------------------------------------------| 
|-5-5-5-5-5-8-8-8-1-1-1-1-3-3-3---5-5-5-5-5-8-8-8-3-3-3-3-1-1-1------|
|-5-5-5-5-5-8-8-8-1-1-1-1-3-3-3---5-5-5-5-5-8-8-8-3-3-3-3-1-1-1------|

Riff B
|-----------------------------------------------------------|
|-----------------------------------------------------------|
|-----------------------------------------------------------| 
|-----------------------------------------------------------| 
|-5-5-5-5-5-5-8-8-8-8-8-8-3-3-3-3-3-3-1-1-1-1-1-1-----------|
|-5-5-5-5-5-5-8-8-8-8-8-8-3-3-3-3-3-3-1-1-1-1-1-1-----------|
  . . . . . . . . . . . . . . . . . . . . . . . .
|-----------------------------------------------------------|
|-----------------------------------------------------------|
|-----------------------------------------------------------| 
|-----------------------------------------------------------| 
|-5-5-5-5-5-5-8-8-8-8-8-8-1-1-1-1-1-1-3-3-3-3-3-3-----------|
|-5-5-5-5-5-5-8-8-8-8-8-8-1-1-1-1-1-1-3-3-3-3-3-3-----------|
  . . . . . . . . . . . . . . . . . . . . . . . .
|-----------------------------------------------------------|
|-----------------------------------------------------------|
|-----------------------------------------------------------| 
|-----------------------------------------------------------| 
|-5-5-5-5-5-5-8-8-8-8-8-8-1-1-1-1-1-1-3-3-3-3-3-3-----------|
|-5-5-5-5-5-5-8-8-8-8-8-8-1-1-1-1-1-1-3-3-3-3-3-3-----------|
  . . . . . . . . . . . . . . . . . . . . . . . .
|-----------------------------------------------------------|
|-----------------------------------------------------------|
|-----------------------------------------------------------| 
|-----------------------------------------------------------| 
|-5-5-5-5-5-5-8-8-8-8-8-8-3-3-3-3-3-3-1-1-1-1-1-1-----------|
|-5-5-5-5-5-5-8-8-8-8-8-8-3-3-3-3-3-3-1-1-1-1-1-1-----------|
  . . . . . . . . . . . . . . . . . . . . . . . .
Verse 
|-------------------------------------------------------------------------------------------|
|-------------------------------------------------------------------------------------------|
|-------------------------------------------------------------------------------------------|
|-------------------------------------------------------------------------------------------|
|-----------------------1-------1-------1-----------------------------1-------1-------x-2---|
|-6-5-3-3-6-5-3-3-6-5-3---5-1-1---5-1-1---5-1---6-5-3-3-6-5-3-3-6-5-3---5-1-1---5-1-1-x-2---|
|
|-------------------------------------------------------------------------------------------|
|-------------------------------------------------------------------------------------------|
|-------------------------------------------------------------------------------------------|
|-------------------------------------------------------------------------------------------|
|-----------------------1-------1-------1-----------------------------1-------1-------x-2---|
|-6-5-3-3-6-5-3-3-6-5-3---5-1-1---5-1-1---5-1---6-5-3-3-6-5-3-3-6-5-3---5-1-1---5-1-1-x-2---|

Chorus
|--------------------------------------------------------------------|
|--------------------------------------------------------------------|
|--------------------------------------------------------------------|
|--------------------------------------------------------------------|
|-3-3-x-5-6-6-x-x-x-8-8-x-10-11-11-11h13p11--------------------------|
|-3-3-x-5-6-6-x-x-x-8-8-x-10-11-11-11h13p11--------------------------|
|
|
|--------------------------------------------------------------------|
|--------------------------------------------------------------------|
|--------------------------------------------------------------------|
|--------------------------------------------------------------------|
|-3-3-x-5-6-6--8\2-2-2-2----2-2-2-2----------------------------------|
|-3-3-x-5-6-6--8\2-2-2-2-3~-2-2-2-2-3~-------------------------------|
|                . . . .    . . . .
|--------------------------------------------------------------------|
|--------------------------------------------------------------------|
|--------------------------------------------------------------------|
|--------------------------------------------------------------------|
|-3-3-x-5-6-6-x-x-x-8-8-x-10-11-11-11h13p11--------------------------|
|-3-3-x-5-6-6-x-x-x-8-8-x-10-11-11-11h13p11--------------------------|
|
|--------------------------------------------------------------------|
|--------------------------------------------------------------------|
|--------------------------------------------------------------------|
|--------------------------------------------------------------------|
|-3-3-x-5-6-6--8\2-2-2-2----2-2-2-2----------------------------------|
|-3-3-x-5-6-6--8\2-2-2-2-3~-2-2-2-2-3~-------------------------------|
                 . . . .    . . . .
Verse 
|-------------------------------------------------------------------------------------------|
|-------------------------------------------------------------------------------------------|
|-------------------------------------------------------------------------------------------|
|-------------------------------------------------------------------------------------------|
|-----------------------1-------1-------1-----------------------------1-------1-------x-2---|
|-6-5-3-3-6-5-3-3-6-5-3---5-1-1---5-1-1---5-1---6-5-3-3-6-5-3-3-6-5-3---5-1-1---5-1-1-x-2---|
|
|-------------------------------------------------------------------------------------------|
|-------------------------------------------------------------------------------------------|
|-------------------------------------------------------------------------------------------|
|-------------------------------------------------------------------------------------------|
|-----------------------1-------1-------1-----------------------------1-------1-------x-2---|
|-6-5-3-3-6-5-3-3-6-5-3---5-1-1---5-1-1---5-1---6-5-3-3-6-5-3-3-6-5-3---5-1-1---5-1-1-x-2---|

Chorus
|--------------------------------------------------------------------|
|--------------------------------------------------------------------|
|--------------------------------------------------------------------|
|--------------------------------------------------------------------|
|-3-3-x-5-6-6-x-x-x-8-8-x-10-11-11-11h13p11--------------------------|
|-3-3-x-5-6-6-x-x-x-8-8-x-10-11-11-11h13p11--------------------------|
|
|
|--------------------------------------------------------------------|
|--------------------------------------------------------------------|
|--------------------------------------------------------------------|
|--------------------------------------------------------------------|
|-3-3-x-5-6-6--8\2-2-2-2----2-2-2-2----------------------------------|
|-3-3-x-5-6-6--8\2-2-2-2-3~-2-2-2-2-3~-------------------------------|
|                . . . .    . . . .
|--------------------------------------------------------------------|
|--------------------------------------------------------------------|
|--------------------------------------------------------------------|
|--------------------------------------------------------------------|
|-3-3-x-5-6-6-x-x-x-8-8-x-10-11-11-11h13p11--------------------------|
|-3-3-x-5-6-6-x-x-x-8-8-x-10-11-11-11h13p11--------------------------|
|
|--------------------------------------------------------------------|
|--------------------------------------------------------------------|
|--------------------------------------------------------------------|
|--------------------------------------------------------------------|
|-3-3-x-5-6-6--8\2-2-2-2----2-2-2-2----------------------------------|
|-3-3-x-5-6-6--8\2-2-2-2-3~-2-2-2-2-3~-------------------------------|

Riff A
|--------------------------------------------------------------------|
|--------------------------------------------------------------------|
|--------------------------------------------------------------------|
|--------------------------------------------------------------------|
|-5-5-5-5-5-8-8-8-3-3-3-3-1-1-1---5-5-5-5-5-8-8-8-1-1-1-1-3-3-3------|
|-5-5-5-5-5-8-8-8-3-3-3-3-1-1-1---5-5-5-5-5-8-8-8-1-1-1-1-3-3-3------|
|                                                                    |
|--------------------------------------------------------------------|
|--------------------------------------------------------------------|
|--------------------------------------------------------------------| 
|--------------------------------------------------------------------| 
|-5-5-5-5-5-8-8-8-1-1-1-1-3-3-3---5-5-5-5-5-8-8-8-3-3-3-3-1-1-1------|
|-5-5-5-5-5-8-8-8-1-1-1-1-3-3-3---5-5-5-5-5-8-8-8-3-3-3-3-1-1-1------|

Riff B
|-----------------------------------------------------------|
|-----------------------------------------------------------|
|-----------------------------------------------------------| 
|-----------------------------------------------------------| 
|-5-5-5-5-5-5-8-8-8-8-8-8-3-3-3-3-3-3-1-1-1-1-1-1-----------|
|-5-5-5-5-5-5-8-8-8-8-8-8-3-3-3-3-3-3-1-1-1-1-1-1-----------|
  . . . . . . . . . . . . . . . . . . . . . . . .
|-----------------------------------------------------------|
|-----------------------------------------------------------|
|-----------------------------------------------------------| 
|-----------------------------------------------------------| 
|-5-5-5-5-5-5-8-8-8-8-8-8-1-1-1-1-1-1-3-3-3-3-3-3-----------|
|-5-5-5-5-5-5-8-8-8-8-8-8-1-1-1-1-1-1-3-3-3-3-3-3-----------|
  . . . . . . . . . . . . . . . . . . . . . . . .
|-----------------------------------------------------------|
|-----------------------------------------------------------|
|-----------------------------------------------------------| 
|-----------------------------------------------------------| 
|-5-5-5-5-5-5-8-8-8-8-8-8-1-1-1-1-1-1-3-3-3-3-3-3-----------|
|-5-5-5-5-5-5-8-8-8-8-8-8-1-1-1-1-1-1-3-3-3-3-3-3-----------|
  . . . . . . . . . . . . . . . . . . . . . . . .
|-----------------------------------------------------------|
|-----------------------------------------------------------|
|-----------------------------------------------------------| 
|-----------------------------------------------------------| 
|-5-5-5-5-5-5-8-8-8-8-8-8-3-3-3-3-3-3-1-1-1-1-1-1-----------|
|-5-5-5-5-5-5-8-8-8-8-8-8-3-3-3-3-3-3-1-1-1-1-1-1-----------|
  . . . . . . . . . . . . . . . . . . . . . . . .
Verse 
|-------------------------------------------------------------------------------------------|
|-------------------------------------------------------------------------------------------|
|-------------------------------------------------------------------------------------------|
|-------------------------------------------------------------------------------------------|
|-----------------------1-------1-------1-----------------------------1-------1-------x-2---|
|-6-5-3-3-6-5-3-3-6-5-3---5-1-1---5-1-1---5-1---6-5-3-3-6-5-3-3-6-5-3---5-1-1---5-1-1-x-2---|
|
|-------------------------------------------------------------------------------------------|
|-------------------------------------------------------------------------------------------|
|-------------------------------------------------------------------------------------------|
|-------------------------------------------------------------------------------------------|
|-----------------------1-------1-------1-----------------------------1-------1-------x-2---|
|-6-5-3-3-6-5-3-3-6-5-3---5-1-1---5-1-1---5-1---6-5-3-3-6-5-3-3-6-5-3---5-1-1---5-1-1-x-2---|

Chorus
|--------------------------------------------------------------------|
|--------------------------------------------------------------------|
|--------------------------------------------------------------------|
|--------------------------------------------------------------------|
|-3-3-x-5-6-6-x-x-x-8-8-x-10-11-11-11h13p11--------------------------|
|-3-3-x-5-6-6-x-x-x-8-8-x-10-11-11-11h13p11--------------------------|
|
|--------------------------------------------------------------------|
|--------------------------------------------------------------------|
|--------------------------------------------------------------------|
|--------------------------------------------------------------------|
|-3-3-x-5-6-6--8\2-2-2-2----2-2-2-2----------------------------------|
|-3-3-x-5-6-6--8\2-2-2-2-3~-2-2-2-2-3~-------------------------------|
|                . . . .    . . . .
|--------------------------------------------------------------------|
|--------------------------------------------------------------------|
|--------------------------------------------------------------------|
|--------------------------------------------------------------------|
|-3-3-x-5-6-6-x-x-x-8-8-x-10-11-11-11h13p11--------------------------|
|-3-3-x-5-6-6-x-x-x-8-8-x-10-11-11-11h13p11--------------------------|
|
|--------------------------------------------------------------------|
|--------------------------------------------------------------------|
|--------------------------------------------------------------------|
|--------------------------------------------------------------------|
|-3-3-x-5-6-6--8\2-2-2-2----2-2-2-2----------------------------------|
|-3-3-x-5-6-6--8\2-2-2-2-3~-2-2-2-2-3~-------------------------------|

Riff A
|--------------------------------------------------------------------|
|--------------------------------------------------------------------|
|--------------------------------------------------------------------|
|--------------------------------------------------------------------|
|-5-5-5-5-5-8-8-8-3-3-3-3-1-1-1---5-5-5-5-5-8-8-8-1-1-1-1-3-3-3------|
|-5-5-5-5-5-8-8-8-3-3-3-3-1-1-1---5-5-5-5-5-8-8-8-1-1-1-1-3-3-3------|
|                                                                    |
|--------------------------------------------------------------------|
|--------------------------------------------------------------------|
|--------------------------------------------------------------------| 
|--------------------------------------------------------------------| 
|-5-5-5-5-5-8-8-8-1-1-1-1-3-3-3---5-5-5-5-5-8-8-8-3-3-3-3-1-1-1------|
|-5-5-5-5-5-8-8-8-1-1-1-1-3-3-3---5-5-5-5-5-8-8-8-3-3-3-3-1-1-1------|

Riff B
|-----------------------------------------------------------|
|-----------------------------------------------------------|
|-----------------------------------------------------------| 
|-----------------------------------------------------------| 
|-5-5-5-5-5-5-8-8-8-8-8-8-3-3-3-3-3-3-1-1-1-1-1-1-----------|
|-5-5-5-5-5-5-8-8-8-8-8-8-3-3-3-3-3-3-1-1-1-1-1-1-----------|
  . . . . . . . . . . . . . . . . . . . . . . . .
|-----------------------------------------------------------|
|-----------------------------------------------------------|
|-----------------------------------------------------------| 
|-----------------------------------------------------------| 
|-5-5-5-5-5-5-8-8-8-8-8-8-1-1-1-1-1-1-3-3-3-3-3-3-----------|
|-5-5-5-5-5-5-8-8-8-8-8-8-1-1-1-1-1-1-3-3-3-3-3-3-----------|
  . . . . . . . . . . . . . . . . . . . . . . . .
|-----------------------------------------------------------|
|-----------------------------------------------------------|
|-----------------------------------------------------------| 
|-----------------------------------------------------------| 
|-5-5-5-5-5-5-8-8-8-8-8-8-1-1-1-1-1-1-3-3-3-3-3-3-----------|
|-5-5-5-5-5-5-8-8-8-8-8-8-1-1-1-1-1-1-3-3-3-3-3-3-----------|
  . . . . . . . . . . . . . . . . . . . . . . . .
|-----------------------------------------------------------|
|-----------------------------------------------------------|
|-----------------------------------------------------------| 
|-----------------------------------------------------------| 
|-5-5-5-5-5-5-8-8-8-8-8-8-3-3-3-3-3-3-1-1-1-1-1-1-----------|
|-5-5-5-5-5-5-8-8-8-8-8-8-3-3-3-3-3-3-1-1-1-1-1-1-----------|
  . . . . . . . . . . . . . . . . . . . . . . . .
Bridge 1
|--------------------------------------------------------------------|
|--------------------------------------------------------------------|
|--------------------------------------------------------------------|
|-5-3-5---------------5-3-5-10~----5-3-5---------------5-3-5---------|
|-7-5-7-0-0-0-0-0-0-0-7-5-7-8~-----7-5-7-0-0-0-0-0-0-0-7-5-7-5-6-7---|
|-------0-0-0-0-0-0-0--------------------0-0-0-0-0-0-0-------5-6-7---|
|       . . . . . .                      . . . . . .
|--------------------------------------------------------------------|
|--------------------------------------------------------------------|
|--------------------------------------------------------------------|
|-5-3-5---------------5-3-5-10~----5-3-5---------------5-3-5---------|
|-7-5-7-0-0-0-0-0-0-0-7-5-7-8~-----7-5-7-0-0-0-0-0-0-0-7-5-7-5-6-7---|
|-------0-0-0-0-0-0-0--------------------0-0-0-0-0-0-0-------5-6-7---|
|       . . . . . .                      . . . . . .
|--------------------------------------------------------------------|
|--------------------------------------------------------------------|
|--------------------------------------------------------------------|
|-5-3-5---------------5-3-5-10~----5-3-5---------------5-3-5---------|
|-7-5-7-0-0-0-0-0-0-0-7-5-7-8~-----7-5-7-0-0-0-0-0-0-0-7-5-7-5-6-7---|
|-------0-0-0-0-0-0-0--------------------0-0-0-0-0-0-0-------5-6-7---|
|       . . . . . .                      . . . . . .
|--------------------------------------------------------------------|
|--------------------------------------------------------------------|
|--------------------------------------------------------------------|
|-5-3-5---------------5-3-5-10~----5-3-5---------------5-3-5---------|
|-7-5-7-0-0-0-0-0-0-0-7-5-7-8~-----7-5-7-0-0-0-0-0-0-0-7-5-7-5-6-7---|
|-------0-0-0-0-0-0-0--------------------0-0-0-0-0-0-0-------5-6-7---|
|       . . . . . .                      . . . . . .
Bridge 2
|--------------------------------------------------------------------|
|--------------------------------------------------------------------|
|--------------------------------------------------------------------|
|--------------------------------------------------------------------|
|-1-1-0-0-1-0-3-3-0-0-3-0-0-8-8-0-0-8-0-10-10-0-0-10-0-0-------------|
|-1-1-0-0-1-0-3-3-0-0-3-0-0-8-8-0-0-8-0-10-10-0-0-10-0-0-------------|
|     . .   .     . .   . .     . .   .       . .    . .
|--------------------------------------------------------------------|
|--------------------------------------------------------------------|
|--------------------------------------------------------------------|
|--------------------------------------------------------------------|
|-1-1-0-0-1-0-8-0-3-0-5-0-0-5-0-0-5-0-0-5-0--------------------------|
|-1-1-0-0-1-0-8-0-3-0-5-0-0-5-0-0-5-0-0-5-0--------------------------|
|     . .   .   .   .   . .   . .   . .   .
|--------------------------------------------------------------------|
|--------------------------------------------------------------------|
|--------------------------------------------------------------------|
|--------------------------------------------------------------------|
|-1-1-0-0-1-0-3-3-0-0-3-0-0-8-8-0-0-8-0-10-10-0-0-10-0-0-------------|
|-1-1-0-0-1-0-3-3-0-0-3-0-0-8-8-0-0-8-0-10-10-0-0-10-0-0-------------|
|     . .   .     . .   . .     . .   .       . .    . .
|--------------------------------------------------------------------------|
|--------------------------------------------------------------------------|
|--------------------------------------------------------------------------|
|--------------------------------------------------------------------------|
|-1-1-0-0-1-0-8-0-3-0-5-0-0-5-0-0-5-0-0-5-0-5-5-0-0-5-0-0-5-0-0-5-0-0-5-0--|
|-1-1-0-0-1-0-8-0-3-0-5-0-0-5-0-0-5-0-0-5-0-5-5-0-0-5-0-0-5-0-0-5-0-0-5-0--|
      . .   .   .   .   . .   . .   . .   .     . .   . .   . .   . .   .
Verse 
|-------------------------------------------------------------------------------------------|
|-------------------------------------------------------------------------------------------|
|-------------------------------------------------------------------------------------------|
|-------------------------------------------------------------------------------------------|
|-----------------------1-------1-------1-----------------------------1-------1-------x-2---|
|-6-5-3-3-6-5-3-3-6-5-3---5-1-1---5-1-1---5-1---6-5-3-3-6-5-3-3-6-5-3---5-1-1---5-1-1-x-2---|
|
|-------------------------------------------------------------------------------------------|
|-------------------------------------------------------------------------------------------|
|-------------------------------------------------------------------------------------------|
|-------------------------------------------------------------------------------------------|
|-----------------------1-------1-------1-----------------------------1-------1-------x-2---|
|-6-5-3-3-6-5-3-3-6-5-3---5-1-1---5-1-1---5-1---6-5-3-3-6-5-3-3-6-5-3---5-1-1---5-1-1-x-2---|

Chorus
|--------------------------------------------------------------------|
|--------------------------------------------------------------------|
|--------------------------------------------------------------------|
|--------------------------------------------------------------------|
|-3-3-x-5-6-6-x-x-x-8-8-x-10-11-11-11h13p11--------------------------|
|-3-3-x-5-6-6-x-x-x-8-8-x-10-11-11-11h13p11--------------------------|
|
|
|--------------------------------------------------------------------|
|--------------------------------------------------------------------|
|--------------------------------------------------------------------|
|--------------------------------------------------------------------|
|-3-3-x-5-6-6--8\2-2-2-2----2-2-2-2----------------------------------|
|-3-3-x-5-6-6--8\2-2-2-2-3~-2-2-2-2-3~-------------------------------|
|                . . . .    . . . .
|--------------------------------------------------------------------|
|--------------------------------------------------------------------|
|--------------------------------------------------------------------|
|--------------------------------------------------------------------|
|-3-3-x-5-6-6-x-x-x-8-8-x-10-11-11-11h13p11--------------------------|
|-3-3-x-5-6-6-x-x-x-8-8-x-10-11-11-11h13p11--------------------------|
|
|--------------------------------------------------------------------|
|--------------------------------------------------------------------|
|--------------------------------------------------------------------|
|--------------------------------------------------------------------|
|-3-3-x-5-6-6--8\2-2-2-2----2-2-2-2----------------------------------|
|-3-3-x-5-6-6--8\2-2-2-2-3~-2-2-2-2-3~-------------------------------|

Outro A
|--------------------------------------------------------------------|
|--------------------------------------------------------------------|
|--------------------------------------------------------------------|
|--------------------------------------------------------------------|
|-5-5-5-5-5-8-8-8-3-3-3-3-1-1-1---5-5-5-5-5-8-8-8-1-1-1-1-3-3-3------|
|-5-5-5-5-5-8-8-8-3-3-3-3-1-1-1---5-5-5-5-5-8-8-8-1-1-1-1-3-3-3------|
|                                                                    |
|--------------------------------------------------------------------|
|--------------------------------------------------------------------|
|--------------------------------------------------------------------| 
|--------------------------------------------------------------------| 
|-5-5-5-5-5-8-8-8-1-1-1-1-3-3-3---5-5-5-5-5-8-8-8-3-3-3-3-1-1-1------|
|-5-5-5-5-5-8-8-8-1-1-1-1-3-3-3---5-5-5-5-5-8-8-8-3-3-3-3-1-1-1------|

Outro B
|-----------------------------------------------------------|
|-----------------------------------------------------------|
|-----------------------------------------------------------| 
|-----------------------------------------------------------| 
|-5-5-5-5-5-5-8-8-8-8-8-8-3-3-3-3-3-3-1-1-1-1-1-1-----------|
|-5-5-5-5-5-5-8-8-8-8-8-8-3-3-3-3-3-3-1-1-1-1-1-1-----------|
  . . . . . . . . . . . . . . . . . . . . . . . .
|-----------------------------------------------------------|
|-----------------------------------------------------------|
|-----------------------------------------------------------| 
|-----------------------------------------------------------| 
|-5-5-5-5-5-5-8-8-8-8-8-8-1-1-1-1-1-1-3-3-3-3-3-3-----------|
|-5-5-5-5-5-5-8-8-8-8-8-8-1-1-1-1-1-1-3-3-3-3-3-3-----------|
  . . . . . . . . . . . . . . . . . . . . . . . .
|-----------------------------------------------------------|
|-----------------------------------------------------------|
|-----------------------------------------------------------| 
|-----------------------------------------------------------| 
|-5-5-5-5-5-5-8-8-8-8-8-8-1-1-1-1-1-1-3-3-3-3-3-3-----------|
|-5-5-5-5-5-5-8-8-8-8-8-8-1-1-1-1-1-1-3-3-3-3-3-3-----------|
  . . . . . . . . . . . . . . . . . . . . . . . .
|-----------------------------------------------------------|
|-----------------------------------------------------------|
|-----------------------------------------------------------| 
|-----------------------------------------------------------| 
|-5-5-5-5-5-5-8-8-8-8-8-8-3-3-3-1-1-1-5\--------------------|
|-5-5-5-5-5-5-8-8-8-8-8-8-3-3-3-1-1-1-5\--------------------|
  . . . . . . . . . . . . 
Tap to rate this tab
 
# A B C D E F G H I J K L M N O P Q R S T U V W X Y Z