Song name
# A B C D E F G H I J K L M N O P Q R S T U V W X Y Z

Arch Enemy - Pilgrim tab

#----------------------------------PLEASE NOTE---------------------------------#
#This file is the author's own work and represents their interpretation of the #
#song. You may only use this file for private study, scholarship, or research. #
#------------------------------------------------------------------------------#

PILGRIM
As recorded by Arch Enemy
(From the 1999 Album BURNING BRIDGES)

Transcribed by SoggieMufin
	

Words by Michael Amott Music by Michael Amott/Christopher Amott

Gtr I (B E A D F# B) - 'Untitled'
Gtr II (B E A D F# B) - 'Untitled'
Gtr III (B E A D F# B) - 'Untitled'
Gtr IV (B E A D F# B) - 'Untitled'

 Intro
  Q.=170
  N.C.         A5                        Eb5
 6/8
  Gtrs I, II
                    PM--|        PM--|        PM--|        PM--|
  Wx4          Q  E E E E   Q  E E E E   Q  E E E E   Q  E E E E
|----------||-------------|------------|------------|------------|
|----------||o------------|------------|------------|------------|
|----------||--9--9-------|-9--9-------|------------|------------|
|----------||--7--7-7-7-7-|-7--7-7-7-7-|-8--8-------|-8--8-------|
|----------||o------------|------------|-6--6-6-6-6-|-6--6-6-6-6-|
|----------||-------------|------------|------------|------------|


  Bb5                       A5           G#5
       PM--|        PM--|        PM--|        PM--|
  Q  E E E E   Q  E E E E   Q  E E E E   Q  E E E E
|------------|------------|------------|-------------|
|------------|------------|------------|-------------|
|------------|------------|------------|-------------|
|------------|------------|------------|-------------|
|-8--8-------|-8--8-------|-7--7-------|-6--6--------|
|-6--6-6-6-6-|-6--6-6-6-6-|-5--5-5-5-5-|-4--4-4-4-4--|


  A5                        Eb5
       PM--|        PM--|        PM--|        PM--|
  Q  E E E E   Q  E E E E   Q  E E E E   Q  E E E E
|------------|------------|------------|-------------|
|------------|------------|------------|-------------|
|-9--9-------|-9--9-------|------------|-------------|
|-7--7-7-7-7-|-7--7-7-7-7-|-8--8-------|-8--8--------|
|------------|------------|-6--6-6-6-6-|-6--6-6-6-6--|
|------------|------------|------------|-------------|


  1.
  Bb5                       A5        G#5
  Gtr I
       PM--|        PM--|
  Q  E E E E   Q  E E E E   H.        H.
|------------|------------|---------|--------||
|------------|------------|---------|-------o||
|------------|------------|---------|--------||
|------------|------------|---------|--------||
|-8--8-------|-8--8-------|-7-------|-6-----o||
|-6--6-6-6-6-|-6--6-6-6-6-|-5-------|-4------||
|
| Gtr II
|      PM--|        PM--|
| Q  E E E E   Q  E E E E   H.        H.
|------------|------------|---------|--------||
|------------|------------|---------|-------o||
|------------|------------|---------|--------||
|------------|------------|-7-------|-6------||
|-8--8-------|-8--8-------|---------|-------o||
|-6--6-6-6-6-|-6--6-6-6-6-|-5-------|-4------||


  2.
  Bb5                       A5        G#5
  Gtr I
       PM--|        PM--|
  Q  E E E E   Q  E E E E   H.        H.
|------------|------------|---------|-------|
|------------|------------|---------|-------|
|------------|------------|---------|-------|
|------------|------------|---------|-------|
|-8--8-------|-8--8-------|-7-------|-6-----|
|-6--6-6-6-6-|-6--6-6-6-6-|-5-------|-4-----|
|
| Gtr II
|      PM--|        PM--|
| Q  E E E E   Q  E E E E   H.        H.
|------------|------------|---------|-------|
|------------|------------|---------|-------|
|------------|------------|-9-------|-8-----|
|------------|------------|-7-------|-6-----|
|-8--8-------|-8--8-------|---------|-------|
|-6--6-6-6-6-|-6--6-6-6-6-|---------|-------|


 Lead - C. Amott
  A5                              G/B
  Gtr III
   H.           +Q.        Q.      H.         +H.
|------------|------------------|----------|---------|
|-15b17------|-(15)pb17---13----|-15-------|-(15)----|
|------------|------------------|----------|---------|
|------------|------------------|----------|---------|
|------------|------------------|----------|---------|
|------------|------------------|----------|---------|
|
| Gtrs I, II
|  H.           +H.                H.         +H.
|------------|------------------|----------|---------|
|------------|------------------|----------|---------|
|--9---------|--(9)-------------|-12-------|-(12)----|
|--7---------|--(7)-------------|--9-------|--(9)----|
|------------|------------------|----------|---------|
|------------|------------------|----------|---------|


  E5                          F5               G5
   H.         +Q.    Q.        E  Q    +Q.      +H.
|----------|----------------|----------------|-------------------|
|-15-------|-(15)---15b17---|-13-------------|-------------------|
|----------|----------------|----14---(14)---|-(14)--------------|
|----------|----------------|----------------|-------------------|
|----------|----------------|----------------|-------------------|
|----------|----------------|----------------|-------------------|
|
|                              PM---|            PM----|
|  H.         +H.              E  E E   Q.       E   E  E  Q.
|----------|----------------|----------------|-------------------|
|----------|----------------|----------------|-------------------|
|----------|----------------|----------------|-------------------|
|--9-------|--(9)-----------|----------10----|------------12-----|
|--7-------|--(7)-----------|--8--8-8---8----|--10--10-10-10-----|
|----------|----------------|----------------|-------------------|


  A5                           G/B
  Q.    Q.      Q.    Q.        H.          q    E  E  E  E
|------------|---------------|----------|--------------------|
|------------|-13----15b17---|-15-------|--17---15-13-12-----|
|------14----|---------------|----------|----------------14--|
|------------|---------------|----------|--------------------|
|------------|---------------|----------|--------------------|
|------------|---------------|----------|--------------------|
|
| H.           +H.              H.         +H.
|------------|---------------|----------|--------------------|
|------------|---------------|----------|--------------------|
|-9----------|-(9)-----------|-12-------|-(12)---------------|
|-7----------|-(7)-----------|--9-------|--(9)---------------|
|------------|---------------|----------|--------------------|
|------------|---------------|----------|--------------------|


  C5                          (E5)
   H.         Q    Q     Q     H.           +H.
|----------|----------------|------------|-------------|
|----------|----------------|------------|-------------|
|-12-------|------12----14--|-14b16------|-(14)pb16----|
|----------|-14-------------|------------|-------------|
|----------|----------------|------------|-------------|
|----------|----------------|------------|-------------|
|
|  H.        +Q.     Q.        H.           +H.
|----------|----------------|------------|-------------|
|----------|----------------|------------|-------------|
|----------|----------------|------------|-------------|
|--5-------|-(5)------------|------------|-------------|
|--3-------|-(3)-----5------|--7---------|--(7)--------|
|----------|----------------|------------|-------------|


  A5                                       G/B
   H.           +Q.        E      +E   E    H.          H.
|------------|---------------------------|----------|--15-----|
|-15b17------|-(15)pb17---15pb17-(15)-13-|-15-------|---------|
|------------|---------------------------|----------|---------|
|------------|---------------------------|----------|---------|
|------------|---------------------------|----------|---------|
|------------|---------------------------|----------|---------|
|
|  H.           +H.                         H.         +H.
|------------|---------------------------|----------|---------|
|------------|---------------------------|----------|---------|
|--9---------|--(9)----------------------|-12-------|-(12)----|
|--7---------|--(7)----------------------|--9-------|--(9)----|
|------------|---------------------------|----------|---------|
|------------|---------------------------|----------|---------|


  E5                                      F5              G5
   E   E  E  E     E  E    Q.    Q.        H.              +H.
|-17--------------------|---------------|---------------|--------------------|
|-----20-17-------17-20-|-17------------|---------------|--------------------|
|-----------19b21-------|-------19b21r==|=17------------|-(17)\--------------|
|-----------------------|---------------|---------------|--------------------|
|-----------------------|---------------|---------------|--------------------|
|-----------------------|---------------|---------------|--------------------|
|
|                                          PM---|           PM-----|
|  H.                     +H.              E  E E  Q.       E    E  E  Q.
|-----------------------|---------------|---------------|--------------------|
|-----------------------|---------------|---------------|--------------------|
|-----------------------|---------------|---------------|--------------------|
|--9--------------------|-(9)-----------|---------10----|-------------12-----|
|--7--------------------|-(7)-----------|--8--8-8--8----|--10---10-10-10-----|
|-----------------------|---------------|---------------|--------------------|


  A5                           G/B
  Q.    Q.      Q.    Q.        H.          q    E  E  E  E
|------------|---------------|----------|--------------------|
|------------|-13----15b17---|-15-------|--17---15-13-12-----|
|------14----|---------------|----------|----------------14--|
|------------|---------------|----------|--------------------|
|------------|---------------|----------|--------------------|
|------------|---------------|----------|--------------------|
|
| H.           +H.              H.         +H.
|------------|---------------|----------|--------------------|
|------------|---------------|----------|--------------------|
|-9----------|-(9)-----------|-12-------|-(12)---------------|
|-7----------|-(7)-----------|--9-------|--(9)---------------|
|------------|---------------|----------|--------------------|
|------------|---------------|----------|--------------------|


  C5                          (E5)         N.C.
   H.         Q    Q     Q     H.           +H.
|----------|----------------|------------|------------------|
|----------|----------------|------------|------------------|
|-12-------|------12----14--|-14b16------|-(14)pb16---------|
|----------|-14-------------|------------|------------------|
|----------|----------------|------------|------------------|
|----------|----------------|------------|------------------|
|
|  H.        +Q.     Q.        H.            Q.       Q.
|----------|----------------|------------|------------------|
|----------|----------------|------------|------------------|
|----------|----------------|------------|------------------|
|--5-------|-(5)------------|------------|------------------|
|--3-------|-(3)-----5------|--7---------|---3--------2-----|
|----------|----------------|------------|------------------|


 Verse
  N.C.
  Gtr I
  PM--------------------------------------------|
  E E E E E E   E E E E E E   E E E E E E   E E E  Q.
|-------------|-------------|-------------|-------------|
|-------------|-------------|-------------|-------------|
|-------------|-------------|-------------|-------14----|
|-------------|-------------|-------------|-------------|
|-------------|-------------|-------------|-------12----|
|-0-0-0-0-0-0-|-0-0-0-0-0-0-|-0-0-0-0-0-0-|-0-0-0-------|
|
| Gtr II
| PM--------------------------------------------|
| E E E E E E   E E E E E E   E E E E E E   E E E  Q.
|-------------|-------------|-------------|-------------|
|-------------|-------------|-------------|-------------|
|-------------|-------------|-------------|-------10----|
|-------------|-------------|-------------|-------------|
|-------------|-------------|-------------|--------8----|
|-0-0-0-0-0-0-|-0-0-0-0-0-0-|-0-0-0-0-0-0-|-0-0-0-------|


        PM----------------|                          ~~
   Q.   E E E   E E E E E E   Q.     Q.       Q.     Q.
|-------------|-------------|---------------|-------------|
|-------------|-------------|---------------|-------------|
|-13----------|-------------|-4tr7---1tr4---|-------------|
|-------------|-------------|---------------|-------------|
|-11----------|-------------|---------------|-2tr5--------|
|-------0-0-0-|-0-0-0-0-0-0-|---------------|--------4----|
|
|       PM----------------|                          ~~
|  Q.   E E E   E E E E E E   Q.     Q.       Q.     Q.
|-------------|-------------|---------------|-------------|
|-------------|-------------|---------------|-------------|
|--9----------|-------------|---------------|-------------|
|-------------|-------------|-6tr9---3tr6---|-------------|
|--7----------|-------------|---------------|-------------|
|-------0-0-0-|-0-0-0-0-0-0-|---------------|-4tr7---1----|


       PM--------------------------------------|
  Q.   E E E   E E E E E E   E E E E E E   E E E  Q.
|------------|-------------|-------------|-------------|
|------------|-------------|-------------|-------------|
|------------|-------------|-------------|-------14----|
|------------|-------------|-------------|-------------|
|------------|-------------|-------------|-------12----|
|-0----0-0-0-|-0-0-0-0-0-0-|-0-0-0-0-0-0-|-0-0-0-------|
|
|      PM--------------------------------------|
| Q.   E E E   E E E E E E   E E E E E E   E E E  Q.
|------------|-------------|-------------|-------------|
|------------|-------------|-------------|-------------|
|------------|-------------|-------------|-------10----|
|------------|-------------|-------------|-------------|
|------------|-------------|-------------|--------8----|
|-0----0-0-0-|-0-0-0-0-0-0-|-0-0-0-0-0-0-|-0-0-0-------|


        PM----------------|         ~~           ~~
   Q.   E E E   E E E E E E   E E E Q.     E E E Q.
|-------------|-------------|------------|------------|
|-------------|-------------|-------6----|------------|
|-13----------|-------------|-4-5-7------|-7-5-4------|
|-------------|-------------|------------|-------6----|
|-11----------|-------------|------------|------------|
|-------0-0-0-|-0-0-0-0-0-0-|------------|------------|
|
|       PM----------------|         ~~           ~~
|  Q.   E E E   E E E E E E   E E E Q.     E E E Q.
|-------------|-------------|------------|------------|
|-------------|-------------|-------3----|------------|
|--9----------|-------------|-1-2-4------|-4-2-1------|
|-------------|-------------|------------|-------3----|
|--7----------|-------------|------------|------------|
|-------0-0-0-|-0-0-0-0-0-0-|------------|------------|


         PM--------------------------------------|
    Q.   E E E   E E E E E E   E E E E E E   E E E  Q.
||-------------|-------------|-------------|--------------|
||o------------|-------------|-------------|--------------|
||-------------|-------------|-------------|-------14-----|
||-------------|-------------|-------------|--------------|
||o------------|-------------|-------------|-------12-----|
||--0----0-0-0-|-0-0-0-0-0-0-|-0-0-0-0-0-0-|-0-0-0--------|
|
|        PM--------------------------------------|
|   Q.   E E E   E E E E E E   E E E E E E   E E E  Q.
||-------------|-------------|-------------|--------------|
||o------------|-------------|-------------|--------------|
||-------------|-------------|-------------|-------10-----|
||-------------|-------------|-------------|--------------|
||o------------|-------------|-------------|--------8-----|
||--0----0-0-0-|-0-0-0-0-0-0-|-0-0-0-0-0-0-|-0-0-0--------|


        PM----------------|                          ~~
   Q.   E E E   E E E E E E   Q.     Q.       Q.     Q.
|-------------|-------------|---------------|-------------|
|-------------|-------------|---------------|-------------|
|-13----------|-------------|-4tr7---1tr4---|-------------|
|-------------|-------------|---------------|-------------|
|-11----------|-------------|---------------|-2tr5--------|
|-------0-0-0-|-0-0-0-0-0-0-|---------------|--------4----|
|
|       PM----------------|                          ~~
|  Q.   E E E   E E E E E E   Q.     Q.       Q.     Q.
|-------------|-------------|---------------|-------------|
|-------------|-------------|---------------|-------------|
|--9----------|-------------|---------------|-------------|
|-------------|-------------|-6tr9---3tr6---|-------------|
|--7----------|-------------|---------------|-------------|
|-------0-0-0-|-0-0-0-0-0-0-|---------------|-4tr7---1----|


       PM--------------------------------------|
  Q.   E E E   E E E E E E   E E E E E E   E E E  Q.
|------------|-------------|-------------|-------------|
|------------|-------------|-------------|-------------|
|------------|-------------|-------------|-------14----|
|------------|-------------|-------------|-------------|
|------------|-------------|-------------|-------12----|
|-0----0-0-0-|-0-0-0-0-0-0-|-0-0-0-0-0-0-|-0-0-0-------|
|
|      PM--------------------------------------|
| Q.   E E E   E E E E E E   E E E E E E   E E E  Q.
|------------|-------------|-------------|-------------|
|------------|-------------|-------------|-------------|
|------------|-------------|-------------|-------10----|
|------------|-------------|-------------|-------------|
|------------|-------------|-------------|--------8----|
|-0----0-0-0-|-0-0-0-0-0-0-|-0-0-0-0-0-0-|-0-0-0-------|


        PM----------------|         ~~           ~~
   Q.   E E E   E E E E E E   E E E Q.     E E E Q.    3x
|-------------|-------------|------------|-------------||
|-------------|-------------|-------6----|------------o||
|-13----------|-------------|-4-5-7------|-7-5-4-------||
|-------------|-------------|------------|-------6-----||
|-11----------|-------------|------------|------------o||
|-------0-0-0-|-0-0-0-0-0-0-|------------|-------------||
|
|       PM----------------|         ~~           ~~
|  Q.   E E E   E E E E E E   E E E Q.     E E E Q.    3x
|-------------|-------------|------------|-------------||
|-------------|-------------|-------3----|------------o||
|--9----------|-------------|-1-2-4------|-4-2-1-------||
|-------------|-------------|------------|-------3-----||
|--7----------|-------------|------------|------------o||
|-------0-0-0-|-0-0-0-0-0-0-|------------|-------------||


   Chorus
    Q=200
    $
    $$
    E5                    C5          D5                    E5
   4/4
    Gtrs I, II
    Q  E E +E  E Q    E E Q  Q  E E   Q  E E +E  E Q    E E Q  Q  E E
||------------------|---------------|-----------------|-----------------||
||o-----------------|---------------|-----------------|----------------o||
||------------------|---------------|-----------------|-----------------||
||--9--x-9-(9)-x-9--|-x-x-5--5--x-x-|-7--x-7-(7)-x-7--|-x-x-9--9--x-x---||
||o-7--x-7-(7)-x-7--|-x-x-3--3--x-x-|-5--x-5-(5)-x-5--|-x-x-7--7--x-x--o||
||------------------|---------------|-----------------|-----------------||


  E5                           C5
  Gtr III
    Q.     E  +Q    Q    +H       +E  E  E  E
|----------------------|----------------------|
|----------------------|----------------------|
|-/12-----11-(11)---9--|-(9)------(9)-9-11-12-|
|----------------------|----------------------|
|----------------------|----------------------|
|----------------------|----------------------|
|
| Gtrs I, II
|   Q   E  E  +E  E Q     E  E Q   Q     E  E
|----------------------|----------------------|
|----------------------|----------------------|
|----------------------|----------------------|
|---9---x--9--(9)-x-9--|--x--x-5---5-----x--x-|
|---7---x--7--(7)-x-7--|--x--x-3---3-----x--x-|
|----------------------|----------------------|


  D5                                      E5
   Q.     E  +Q     Q     +E      +E       +Q   H
|----------------------|-------------------------------|
|----------------------|-------------------------------|
|-14-----12-(12)---11--|-(11)b12-(11)pb12r(11)--9------|
|----------------------|-------------------------------|
|----------------------|-------------------------------|
|----------------------|-------------------------------|
|
|  Q   E  E  +E  E  Q      E       E        Q   Q  E E
|----------------------|-------------------------------|
|----------------------|-------------------------------|
|----------------------|-------------------------------|
|--7---x--7--(7)-x--7--|---x-------x--------9---9--x-x-|
|--5---x--5--(5)-x--5--|---x-------x--------7---7--x-x-|
|----------------------|-------------------------------|


  E5                           C5
    Q.     E  +Q    Q    +W
|----------------------|-----------------|
|----------------------|-----------------|
|-/12-----11-(11)---9--|-(9)-------------|
|----------------------|-----------------|
|----------------------|-----------------|
|----------------------|-----------------|
|
|   Q   E  E  +E  E Q     E  E Q  Q  E E
|----------------------|-----------------|
|----------------------|-----------------|
|----------------------|-----------------|
|---9---x--9--(9)-x-9--|--x--x-5--5--x-x-|
|---7---x--7--(7)-x-7--|--x--x-3--3--x-x-|
|----------------------|-----------------|


  D5                          E5
  Q  E E +E  E  Q      +W
|-------------------|-------------------|
|-------------------|-------------------|
|------------7------|-------------------|
|-9--7-9-(9)---[9]--|-([9])-------------|
|-------------------|-------------------|
|-------------------|-------------------|
|
| Q  E E +E  E  Q       E   E Q  Q  E E
|-------------------|-------------------|
|-------------------|-------------------|
|-------------------|-------------------|
|-7--x-7-(7)-x--7---|---x---x-9--9--x-x-|
|-5--x-5-(5)-x--5---|---x---x-7--7--x-x-|
|-------------------|-------------------|


  E5                             C5
  Gtr IV
    Q.     E  +Q     Q     +H        +E   E  E  E
|-----------------------|-------------------------|
|-----------------------|-------------------------|
|-/16-----14-(14)---12--|-(12)------(12)-12-14-16-|
|-----------------------|-------------------------|
|-----------------------|-------------------------|
|-----------------------|-------------------------|
|
| Gtr III
|   Q.     E  +Q     Q     +H        +E   E  E  E
|-----------------------|-------------------------|
|-----------------------|-------------------------|
|-/12-----11-(11)----9--|--(9)-------(9)--9-11-12-|
|-----------------------|-------------------------|
|-----------------------|-------------------------|
|-----------------------|-------------------------|
|
| Gtrs I, II
|   Q   E  E  +E  E  Q      E  E Q    Q      E  E
|-----------------------|-------------------------|
|-----------------------|-------------------------|
|-----------------------|-------------------------|
|---9---x--9--(9)-x--9--|---x--x-5----5------x--x-|
|---7---x--7--(7)-x--7--|---x--x-3----3------x--x-|
|-----------------------|-------------------------|


                                               To Coda
                                               To Coda
  D5                                      E5
   Q.     E  +Q     Q     +E      +E       +Q    H
|----------------------|--------------------------------|
|----------------------|--------------------------------|
|-17-----16-(16)---14--|-(14)b16-(14)pb16r(14)--12------|
|----------------------|--------------------------------|
|----------------------|--------------------------------|
|----------------------|--------------------------------|
|
|  Q.     E  +Q     Q     +E      +E       +Q    H
|----------------------|--------------------------------|
|----------------------|--------------------------------|
|-14-----12-(12)---11--|-(11)b12-(11)pb12r(11)---9------|
|----------------------|--------------------------------|
|----------------------|--------------------------------|
|----------------------|--------------------------------|
|
|  Q   E  E  +E  E  Q      E       E        Q    Q  E E
|----------------------|--------------------------------|
|----------------------|--------------------------------|
|----------------------|--------------------------------|
|--7---x--7--(7)-x--7--|---x-------x--------9----9--x-x-|
|--5---x--5--(5)-x--5--|---x-------x--------7----7--x-x-|
|----------------------|--------------------------------|


  E5                             C5
                            >
    Q.     E  +Q     Q     +W
|-----------------------|------------------|
|-----------------------|------------------|
|-/16-----14-(14)---12--|-(12)-------------|
|-----------------------|------------------|
|-----------------------|------------------|
|-----------------------|------------------|
|
|   Q.     E  +Q     Q     +W
|-----------------------|------------------|
|-----------------------|------------------|
|-/12-----11-(11)----9--|--(9)-------------|
|-----------------------|------------------|
|-----------------------|------------------|
|-----------------------|------------------|
|
|   Q   E  E  +E  E  Q      E  E Q  Q  E E
|-----------------------|------------------|
|-----------------------|------------------|
|-----------------------|------------------|
|---9---x--9--(9)-x--9--|---x--x-5--5--x-x-|
|---7---x--7--(7)-x--7--|---x--x-3--3--x-x-|
|-----------------------|------------------|


  D5                      E5
  W                  H       H
|-----------------|----------7/------|
|-----------------|------------------|
|-----------------|------------------|
|-----------------|------------------|
|-----------------|------------------|
|-----------------|------------------|
|
| Q  E E +E  E Q    +W
|-----------------|------------------|
|-----------------|------------------|
|------------7----|------------------|
|-9--7-9-(9)---9--|-(9)--------------|
|-----------------|------------------|
|-----------------|------------------|
|
| Q  E E +E  E Q     E  E Q  Q   E E
|-----------------|------------------|
|-----------------|------------------|
|-----------------|------------------|
|-7--x-7-(7)-x-7--|--x--x-9--9---x-x-|
|-5--x-5-(5)-x-5--|--x--x-7--7---x-x-|
|-----------------|------------------|


 Lead - C. Amott
  Q.=170
  N.C.
 6/8
  Gtr III
   H.                 +Q.       Q.          H.              +Q.      Q.
|-16b19============|=(16)r-----16b19-----|---------------|----------------|
|------------------|---------------------|-18------------|-(18)-----15----|
|------------------|---------------------|---------------|----------------|
|------------------|---------------------|---------------|----------------|
|------------------|---------------------|---------------|----------------|
|------------------|---------------------|---------------|----------------|
|
| Gtr I
|  PM-------------------------------------------------------------|
|  E     E E E E E     E   E E  E    E E    E  E E E E E     E  E E  Q.
|------------------|---------------------|---------------|----------------|
|------------------|---------------------|---------------|----------------|
|------------------|---------------------|---------------|----------14----|
|------------------|---------------------|---------------|----------------|
|------------------|---------------------|---------------|----------12----|
|--0-----0-0-0-0-0-|---0---0-0--0----0-0-|--0--0-0-0-0-0-|---0--0-0-------|
|
| Gtr II
|  PM-------------------------------------------------------------|
|  E     E E E E E     E   E E  E    E E    E  E E E E E     E  E E  Q.
|------------------|---------------------|---------------|----------------|
|------------------|---------------------|---------------|----------------|
|------------------|---------------------|---------------|----------10----|
|------------------|---------------------|---------------|----------------|
|------------------|---------------------|---------------|-----------8----|
|--0-----0-0-0-0-0-|---0---0-0--0----0-0-|--0--0-0-0-0-0-|---0--0-0-------|


   H.               +Q.       Q.          H.               +H.
|----------------|---------------------|----------------|---------------|
|-18b21==========|=(18)r-----18b21-----|-17-------------|-(17)----------|
|----------------|---------------------|----------------|---------------|
|----------------|---------------------|----------------|---------------|
|----------------|---------------------|----------------|---------------|
|----------------|---------------------|----------------|---------------|
|
|          PM------------------------|                             ~~
|  Q.      E E E     E   E E  E    E E    Q.     Q.         Q.     Q.
|----------------|---------------------|----------------|---------------|
|----------------|---------------------|----------------|---------------|
|-13-------------|---------------------|--4tr7---1tr4---|---------------|
|----------------|---------------------|----------------|---------------|
|-11-------------|---------------------|----------------|---2tr5--------|
|----------0-0-0-|---0---0-0--0----0-0-|----------------|----------4----|
|
|          PM------------------------|                             ~~
|  Q.      E E E     E   E E  E    E E    Q.     Q.         Q.     Q.
|----------------|---------------------|----------------|---------------|
|----------------|---------------------|----------------|---------------|
|--9-------------|---------------------|----------------|---------------|
|----------------|---------------------|--6tr9---3tr6---|---------------|
|--7-------------|---------------------|----------------|---------------|
|----------0-0-0-|---0---0-0--0----0-0-|----------------|---4tr7---1----|


  Q   Q   Q     Q   Q   Q     Q    Q    Q      Q    Q      Q
|-0---0---0---|-0---0---0---|-0----0----0---|--0----0------0--|
|-5---6---6---|-6---9---9---|-9---10---10---|-10---12-----12--|
|-------------|-------------|---------------|-----------------|
|-------------|-------------|---------------|-----------------|
|-------------|-------------|---------------|-----------------|
|-------------|-------------|---------------|-----------------|
|
|       PM-----------------------------------------|
| Q.    E E E   E E E E E E   E E  E E  E E    E E  E  Q.
|-------------|-------------|---------------|-----------------|
|-------------|-------------|---------------|-----------------|
|-------------|-------------|---------------|---------14------|
|-------------|-------------|---------------|-----------------|
|-------------|-------------|---------------|---------12------|
|-0-----0-0-0-|-0-0-0-0-0-0-|-0-0--0-0--0-0-|--0-0--0---------|
|
|       PM-----------------------------------------|
| Q.    E E E   E E E E E E   E E  E E  E E    E E  E  Q.
|-------------|-------------|---------------|-----------------|
|-------------|-------------|---------------|-----------------|
|-------------|-------------|---------------|---------10------|
|-------------|-------------|---------------|-----------------|
|-------------|-------------|---------------|----------8------|
|-0-----0-0-0-|-0-0-0-0-0-0-|-0-0--0-0--0-0-|--0-0--0---------|


   Q    Q    Q      Q.      E  E  E    H.             +H.
|--0----0----0---|------------------|--------------|---------------|
|-12---15---15---|-15------13h15p13-|-12-----------|-(12)----------|
|----------------|------------------|--------------|---------------|
|----------------|------------------|--------------|---------------|
|----------------|------------------|--------------|---------------|
|----------------|------------------|--------------|---------------|
|
|         PM---------------------|            ~~              ~~
|  Q.     E  E E    E  E E  E  E  E    E  E E Q.       E  E E Q.
|----------------|------------------|--------------|---------------|
|----------------|------------------|---------6----|---------------|
|-13-------------|------------------|--4--5-7------|---7--5-4------|
|----------------|------------------|--------------|----------6----|
|-11-------------|------------------|--------------|---------------|
|---------0--0-0-|--0--0-0--0--0--0-|--------------|---------------|
|
|                                             ~~              ~~
|  Q.     E  E E    E  E E  E  E  E    E  E E Q.       E  E E Q.
|----------------|------------------|--------------|---------------|
|----------------|------------------|---------3----|---------------|
|--9-------------|------------------|--1--2-4------|---4--2-1------|
|----------------|------------------|--------------|----------3----|
|--7-------------|------------------|--------------|---------------|
|---------0--0-0-|--0--0-0--0--0--0-|--------------|---------------|


  E  E E E E E   E E E E E E    E E  E E  E E    E E  E  E   E E
|--------------|-------------|----------------|------------------|
|--------------|-------------|----------------|----------9-----9-|
|--------------|-------------|---------9----9-|-10-9-10-----10---|
|--------------|-7---7-9-7-9-|-10-9-10---10---|------------------|
|-7--6-7-8-7-8-|---8---------|----------------|------------------|
|--------------|-------------|----------------|------------------|
|
|        PM------------------------------------------|
| Q.     E E E   E E E E E E    E E  E E  E E    E E  E  Q.
|--------------|-------------|----------------|------------------|
|--------------|-------------|----------------|------------------|
|--------------|-------------|----------------|---------14-------|
|--------------|-------------|----------------|------------------|
|--------------|-------------|----------------|---------12-------|
|-0------0-0-0-|-0-0-0-0-0-0-|--0-0--0-0--0-0-|--0-0--0----------|
|
|        PM------------------------------------------|
| Q.     E E E   E E E E E E    E E  E E  E E    E E  E  Q.
|--------------|-------------|----------------|------------------|
|--------------|-------------|----------------|------------------|
|--------------|-------------|----------------|---------10-------|
|--------------|-------------|----------------|------------------|
|--------------|-------------|----------------|----------8-------|
|-0------0-0-0-|-0-0-0-0-0-0-|--0-0--0-0--0-0-|--0-0--0----------|


   E  E  E  E  E  E    E  E  E  E  E  E
|-------------------|-------------10----|
|-10--9-10-12-10-12-|-13-10-12-13----12-|
|-------------------|-------------------|
|-------------------|-------------------|
|-------------------|-------------------|
|-------------------|-------------------|
|
|           PM-----------------------|
|  Q.       E  E  E    E  E  E  E  E  E
|-------------------|-------------------|
|-------------------|-------------------|
|-13----------------|-------------------|
|-------------------|-------------------|
|-11----------------|-------------------|
|-----------0--0--0-|--0--0--0--0--0--0-|
|
|           PM-----------------------|
|  Q.       E  E  E    E  E  E  E  E  E
|-------------------|-------------------|
|-------------------|-------------------|
|--9----------------|-------------------|
|-------------------|-------------------|
|--7----------------|-------------------|
|-----------0--0--0-|--0--0--0--0--0--0-|


   q      q       q     q      q     Q
|--------10------12--|-10---------------|
|-13-----------------|--------13----10--|
|--------------------|------------------|
|--------------------|------------------|
|--------------------|------------------|
|--------------------|------------------|
|
|                                ~~
|  Q.       Q.          Q.       Q.
|--------------------|------------------|
|--------------------|------------------|
|--4tr7-----1tr4-----|------------------|
|--------------------|------------------|
|--------------------|--2tr5------------|
|--------------------|-----------4------|
|
|                                ~~
|  Q.       Q.          Q.       Q.
|--------------------|------------------|
|--------------------|------------------|
|--------------------|------------------|
|--6tr9-----3tr6-----|------------------|
|--------------------|------------------|
|--------------------|--4tr7-----1------|


  ~~
  H.            E E E  E E E    E  E  E  E  E E    E  E  E  E   Q
|------------|-10-7----------|-13-10------------|-16-13------------|
|-9----------|------9--------|-------12---------|-------15---------|
|------------|--------10-7---|----------13-10s8-|----------13------|
|------------|-------------9-|------------------|--------------15--|
|------------|---------------|------------------|------------------|
|------------|---------------|------------------|------------------|
|
|      PM-----------------------------------------------|
| Q.   E E E    E E E  E E E    E  E  E  E  E E    E  E  E  Q.
|------------|---------------|------------------|------------------|
|------------|---------------|------------------|------------------|
|------------|---------------|------------------|----------14------|
|------------|---------------|------------------|------------------|
|------------|---------------|------------------|----------12------|
|-0----0-0-0-|--0-0-0--0-0-0-|--0--0--0--0--0-0-|--0--0--0---------|
|
|      PM-----------------------------------------------|
| Q.   E E E    E E E  E E E    E  E  E  E  E E    E  E  E  Q.
|------------|---------------|------------------|------------------|
|------------|---------------|------------------|------------------|
|------------|---------------|------------------|----------10------|
|------------|---------------|------------------|------------------|
|------------|---------------|------------------|-----------8------|
|-0----0-0-0-|--0-0-0--0-0-0-|--0--0--0--0--0-0-|--0--0--0---------|


                                |---4:3---|
   H.              +Q.          Q    E    E    H.             +H.
|-17b19---------|-(17)pb19-----17---19---17-|-16-----------|-(16)----------|
|---------------|---------------------------|--------------|---------------|
|---------------|---------------------------|--------------|---------------|
|---------------|---------------------------|--------------|---------------|
|---------------|---------------------------|--------------|---------------|
|---------------|---------------------------|--------------|---------------|
|
|         PM---------------------------|              ~~              ~~
|  Q.     E E E     E      E E  E E    E       E  E E Q.       E  E E Q.
|---------------|---------------------------|--------------|---------------|
|---------------|---------------------------|---------6----|---------------|
|-13------------|---------------------------|--4--5-7------|---7--5-4------|
|---------------|---------------------------|--------------|----------6----|
|-11------------|---------------------------|--------------|---------------|
|---------0-0-0-|---0------0-0--0-0----0----|--------------|---------------|
|
|         PM---------------------------|              ~~              ~~
|  Q.     E E E     E      E E  E E    E       E  E E Q.       E  E E Q.
|---------------|---------------------------|--------------|---------------|
|---------------|---------------------------|---------3----|---------------|
|--9------------|---------------------------|--1--2-4------|---4--2-1------|
|---------------|---------------------------|--------------|----------3----|
|--7------------|---------------------------|--------------|---------------|
|---------0-0-0-|---0------0-0--0-0----0----|--------------|---------------|


 Verse
  N.C.
   Q.     Q.        Q.       Q.        Q.       Q.         Q.         Q.
|-22b24----------|-22b24------------|-22b24------------|-(22)b24-----------|
|----------------|------------------|------------------|-------------------|
|----------------|------------------|------------------|-------------------|
|----------------|------------------|------------------|-------------------|
|----------------|------------------|------------------|-------------------|
|----------------|------------------|------------------|-------------------|
|
|         PM-------------------------------------------------------|
|  Q.     E  E E    E    E E E  E E    E    E E E  E E     E     E E  Q.
|----------------|------------------|------------------|-------------------|
|----------------|------------------|------------------|-------------------|
|----------------|------------------|------------------|-------------14----|
|----------------|------------------|------------------|-------------------|
|----------------|------------------|------------------|-------------12----|
|--0------0--0-0-|--0----0-0-0--0-0-|--0----0-0-0--0-0-|---0-----0-0-------|
|
|         PM-------------------------------------------------------|
|  Q.     E  E E    E    E E E  E E    E    E E E  E E     E     E E  Q.
|----------------|------------------|------------------|-------------------|
|----------------|------------------|------------------|-------------------|
|----------------|------------------|------------------|-------------10----|
|----------------|------------------|------------------|-------------------|
|----------------|------------------|------------------|--------------8----|
|--0------0--0-0-|--0----0-0-0--0-0-|--0----0-0-0--0-0-|---0-----0-0-------|


  Gtr I
        PM----------------|                          ~~
   Q.   E E E   E E E E E E   Q.     Q.       Q.     Q.
|-------------|-------------|---------------|-------------|
|-------------|-------------|---------------|-------------|
|-13----------|-------------|-4tr7---1tr4---|-------------|
|-------------|-------------|---------------|-------------|
|-11----------|-------------|---------------|-2tr5--------|
|-------0-0-0-|-0-0-0-0-0-0-|---------------|--------4----|
|
| Gtr II
|       PM----------------|                          ~~
|  Q.   E E E   E E E E E E   Q.     Q.       Q.     Q.
|-------------|-------------|---------------|-------------|
|-------------|-------------|---------------|-------------|
|--9----------|-------------|---------------|-------------|
|-------------|-------------|-6tr9---3tr6---|-------------|
|--7----------|-------------|---------------|-------------|
|-------0-0-0-|-0-0-0-0-0-0-|---------------|-4tr7---1----|


       PM--------------------------------------|
  Q.   E E E   E E E E E E   E E E E E E   E E E  Q.
|------------|-------------|-------------|-------------|
|------------|-------------|-------------|-------------|
|------------|-------------|-------------|-------14----|
|------------|-------------|-------------|-------------|
|------------|-------------|-------------|-------12----|
|-0----0-0-0-|-0-0-0-0-0-0-|-0-0-0-0-0-0-|-0-0-0-------|
|
|      PM--------------------------------------|
| Q.   E E E   E E E E E E   E E E E E E   E E E  Q.
|------------|-------------|-------------|-------------|
|------------|-------------|-------------|-------------|
|------------|-------------|-------------|-------10----|
|------------|-------------|-------------|-------------|
|------------|-------------|-------------|--------8----|
|-0----0-0-0-|-0-0-0-0-0-0-|-0-0-0-0-0-0-|-0-0-0-------|


        PM----------------|         ~~           ~~
   Q.   E E E   E E E E E E   E E E Q.     E E E Q.
|-------------|-------------|------------|------------|
|-------------|-------------|-------6----|------------|
|-13----------|-------------|-4-5-7------|-7-5-4------|
|-------------|-------------|------------|-------6----|
|-11----------|-------------|------------|------------|
|-------0-0-0-|-0-0-0-0-0-0-|------------|------------|
|
|       PM----------------|         ~~           ~~
|  Q.   E E E   E E E E E E   E E E Q.     E E E Q.
|-------------|-------------|------------|------------|
|-------------|-------------|-------3----|------------|
|--9----------|-------------|-1-2-4------|-4-2-1------|
|-------------|-------------|------------|-------3----|
|--7----------|-------------|------------|------------|
|-------0-0-0-|-0-0-0-0-0-0-|------------|------------|


       PM--------------------------------------|
  Q.   E E E   E E E E E E   E E E E E E   E E E  Q.
|------------|-------------|-------------|-------------|
|------------|-------------|-------------|-------------|
|------------|-------------|-------------|-------14----|
|------------|-------------|-------------|-------------|
|------------|-------------|-------------|-------12----|
|-0----0-0-0-|-0-0-0-0-0-0-|-0-0-0-0-0-0-|-0-0-0-------|
|
|      PM--------------------------------------|
| Q.   E E E   E E E E E E   E E E E E E   E E E  Q.
|------------|-------------|-------------|-------------|
|------------|-------------|-------------|-------------|
|------------|-------------|-------------|-------10----|
|------------|-------------|-------------|-------------|
|------------|-------------|-------------|--------8----|
|-0----0-0-0-|-0-0-0-0-0-0-|-0-0-0-0-0-0-|-0-0-0-------|


        PM----------------|                          ~~
   Q.   E E E   E E E E E E   Q.     Q.       Q.     Q.
|-------------|-------------|---------------|-------------|
|-------------|-------------|---------------|-------------|
|-13----------|-------------|-4tr7---1tr4---|-------------|
|-------------|-------------|---------------|-------------|
|-11----------|-------------|---------------|-2tr5--------|
|-------0-0-0-|-0-0-0-0-0-0-|---------------|--------4----|
|
|       PM----------------|                          ~~
|  Q.   E E E   E E E E E E   Q.     Q.       Q.     Q.
|-------------|-------------|---------------|-------------|
|-------------|-------------|---------------|-------------|
|--9----------|-------------|---------------|-------------|
|-------------|-------------|-6tr9---3tr6---|-------------|
|--7----------|-------------|---------------|-------------|
|-------0-0-0-|-0-0-0-0-0-0-|---------------|-4tr7---1----|


       PM--------------------------------------|
  Q.   E E E   E E E E E E   E E E E E E   E E E  Q.
|------------|-------------|-------------|-------------|
|------------|-------------|-------------|-------------|
|------------|-------------|-------------|-------14----|
|------------|-------------|-------------|-------------|
|------------|-------------|-------------|-------12----|
|-0----0-0-0-|-0-0-0-0-0-0-|-0-0-0-0-0-0-|-0-0-0-------|
|
|      PM--------------------------------------|
| Q.   E E E   E E E E E E   E E E E E E   E E E  Q.
|------------|-------------|-------------|-------------|
|------------|-------------|-------------|-------------|
|------------|-------------|-------------|-------10----|
|------------|-------------|-------------|-------------|
|------------|-------------|-------------|--------8----|
|-0----0-0-0-|-0-0-0-0-0-0-|-0-0-0-0-0-0-|-0-0-0-------|


                                        D.S. al Coda
        PM----------------|         ~~           ~~
   Q.   E E E   E E E E E E   E E E Q.     E E E Q.
|-------------|-------------|------------|------------|
|-------------|-------------|-------6----|------------|
|-13----------|-------------|-4-5-7------|-7-5-4------|
|-------------|-------------|------------|-------6----|
|-11----------|-------------|------------|------------|
|-------0-0-0-|-0-0-0-0-0-0-|------------|------------|
|
|       PM----------------|         ~~           ~~
|  Q.   E E E   E E E E E E   E E E Q.     E E E Q.
|-------------|-------------|------------|------------|
|-------------|-------------|-------3----|------------|
|--9----------|-------------|-1-2-4------|-4-2-1------|
|-------------|-------------|------------|-------3----|
|--7----------|-------------|------------|------------|
|-------0-0-0-|-0-0-0-0-0-0-|------------|------------|


  Q=200
  &
  E5                             C5          D5                      E5
 4/4
  Gtr IV
                            >
    Q.     E  +Q     Q     +W                W                  W
|-----------------------|------------------|-----------------|-----------------|
|-----------------------|------------------|-----------------|-----------------|
|-/16-----14-(14)---12--|-(12)-------------|-----------------|-----------------|
|-----------------------|------------------|-----------------|-----------------|
|-----------------------|------------------|-----------------|-----------------|
|-----------------------|------------------|-----------------|-----------------|
|
| Gtr III
|   Q.     E  +Q     Q     +W                Q  E E +E  E Q    +W
|-----------------------|------------------|-----------------|-----------------|
|-----------------------|------------------|-----------------|-----------------|
|-/12-----11-(11)----9--|--(9)-------------|------------7----|-----------------|
|-----------------------|------------------|-9--7-9-(9)---9--|-(9)-------------|
|-----------------------|------------------|-----------------|-----------------|
|-----------------------|------------------|-----------------|-----------------|
|
| Gtrs I, II
|   Q   E  E  +E  E  Q      E  E Q  Q  E E   Q  E E +E  E Q     E  E Q  Q  E E
|-----------------------|------------------|-----------------|-----------------|
|-----------------------|------------------|-----------------|-----------------|
|-----------------------|------------------|-----------------|-----------------|
|---9---x--9--(9)-x--9--|---x--x-5--5--x-x-|-7--x-7-(7)-x-7--|--x--x-9--9--x-x-|
|---7---x--7--(7)-x--7--|---x--x-3--3--x-x-|-5--x-5-(5)-x-5--|--x--x-7--7--x-x-|
|-----------------------|------------------|-----------------|-----------------|


 Lead - M. Amott
  Q=210
  G5                                F5
  Gtr III
                        ~~~~~~~~~~~
   H     E  E  E  E     H        H
|-------------10-15-|--15b17----15------|
|----------11-------|-------------------|
|-------12----------|-------------------|
|-------------------|-------------------|
|-------------------|-------------------|
|-------------------|-------------------|
|
| Gtrs I, II
|  W                   +H.           Q
|-------------------|-------------------|
|-------------------|-------------------|
|-------------------|-------------------|
|-12----------------|-(12)----------10--|
|-10----------------|-(10)-----------8--|
|-------------------|-------------------|


  Eb5
   +E   E  E  E  E  E  E  E    Q      Q      +Q        Q
|-(15)-18\------------10-15-|-15b17--15b18--(15)pb18r=15---|
|------------------11-------|------------------------------|
|---------------12----------|------------------------------|
|------------12-------------|------------------------------|
|---------------------------|------------------------------|
|---------------------------|------------------------------|
|
|   W                         +H.                      Q
|---------------------------|------------------------------|
|---------------------------|------------------------------|
|---------------------------|------------------------------|
|---8-----------------------|-(8)----------------------8---|
|---6-----------------------|-(6)----------------------6---|
|---------------------------|------------------------------|


  E5
   +Q   E   E  E  E  E  E    H        Q      +Q
|-(15)--------------10-15-|-15b17----15b18r=(15)--|
|----------------11-------|-----------------------|
|-------------12----------|-----------------------|
|---------/12-------------|-----------------------|
|-------------------------|-----------------------|
|-------------------------|-----------------------|
|
|   W                       +H.               Q
|-------------------------|-----------------------|
|-------------------------|-----------------------|
|-------------------------|-----------------------|
|---9---------------------|-(9)---------------9---|
|---7---------------------|-(7)---------------7---|
|-------------------------|-----------------------|


  F5          D/F#
   W           H.       E  E
|-13--------|-14--------------|
|-----------|-----------------|
|-----------|----------14-15--|
|-----------|-----------------|
|-----------|-----------------|
|-----------|-----------------|
|
|  W           W
|-----------|-----------------|
|-----------|-----------------|
|-----------|-----------------|
|-10--------|-12--------------|
|--8--------|--9--------------|
|-----------|-----------------|


  N.C.(Gm)
   W                  +H.            E  E
|------------------|----------------------|
|------------------|----------------------|
|-12---------------|-(12)-----------14-15-|
|------------------|----------------------|
|------------------|----------------------|
|------------------|----------------------|
|
|  PM--------------------------------------
|  E E E E E E E E     E  E E E E E  E  E
|------------------|----------------------|
|------------------|----------------------|
|------------------|----------------------|
|----------5-5-----|---8--8-7-7-5-5-------|
|------5-5-----5-5-|-----------------5--5-|
|--3-3-------------|----------------------|


  (Eb)
   W                  +H.            E  E
|------------------|-----------------------|
|------------------|-----------------------|
|-12---------------|-(12)-----------14-15--|
|------------------|-----------------------|
|------------------|-----------------------|
|------------------|-----------------------|
|
|--------------------------------------|
|  E E E E E E E E     E  E E E E E  E  E
|------------------|-----------------------|
|------------------|---8--8-6-6------------|
|----------8-8-----|------------8-8--------|
|------8-8-----8-8-|-----------------8--8--|
|--6-6-------------|-----------------------|
|------------------|-----------------------|


  (Em)
  Gtr IV
   W                   W
|------------------|----------------------|
|------------------|----------------------|
|------------------|----------------------|
|------------------|----------------------|
|------------------|----------------------|
|------------------|----------------------|
|
| Gtr III
|  W                  +H.            E  E
|------------------|----------------------|
|------------------|----------------------|
|-12---------------|-(12)-----------14-15-|
|------------------|----------------------|
|------------------|----------------------|
|------------------|----------------------|
|
| Gtrs I, II
|  PM--------------------------------------
|  E E E E E E E E     E  E E E E E  E  E
|------------------|----------------------|
|------------------|---8--8-6-6-----------|
|----------9-9-----|------------9-9-------|
|------9-9-----9-9-|-----------------9--9-|
|--7-7-------------|----------------------|
|------------------|----------------------|


  (F)                       (D/F#)
   W                         H.                E  E
|-------------------------|--------------------------|
|-------------------------|-------------------13-15--|
|-------------------------|--------------------------|
|-------------------------|--------------------------|
|-------------------------|--------------------------|
|-------------------------|--------------------------|
|
|  H.                E  E    H.                E  E
|-------------------------|--------------------------|
|-------------------------|--------------------------|
|-17----------------14-15-|-17----------------14-15--|
|-------------------------|--------------------------|
|-------------------------|--------------------------|
|-------------------------|--------------------------|
|
|------------------------------------------------|
|  E  E  E  E  E  E  E  E    E  E  E  E  E  E  E  E
|-------------------------|--------------------------|
|-------------------------|-------------10-10--------|
|-------------10-10-------|--------------------------|
|-------10-10-------10-10-|-------12-12-------12-12--|
|--8--8-------------------|--9--9--------------------|
|-------------------------|--------------------------|


  N.C.(Gm)
   W                  +H.            E  E
|------------------|----------------------|
|-11---------------|-(11)-----------13-15-|
|------------------|----------------------|
|------------------|----------------------|
|------------------|----------------------|
|------------------|----------------------|
|
|  W                  +H.            E  E
|------------------|----------------------|
|------------------|----------------------|
|-12---------------|-(12)-----------14-15-|
|------------------|----------------------|
|------------------|----------------------|
|------------------|----------------------|
|
|  PM--------------------------------------
|  E E E E E E E E     E  E E E E E  E  E
|------------------|----------------------|
|------------------|----------------------|
|------------------|----------------------|
|----------5-5-----|---8--8-7-7-5-5-------|
|------5-5-----5-5-|-----------------5--5-|
|--3-3-------------|----------------------|


  (Eb)
   W                  +H.            E  E
|------------------|-----------------------|
|-11---------------|-(11)-----------13-15--|
|------------------|-----------------------|
|------------------|-----------------------|
|------------------|-----------------------|
|------------------|-----------------------|
|
|  W                  +H.            E  E
|------------------|-----------------------|
|------------------|-----------------------|
|-12---------------|-(12)-----------14-15--|
|------------------|-----------------------|
|------------------|-----------------------|
|------------------|-----------------------|
|
|--------------------------------------|
|  E E E E E E E E     E  E E E E E  E  E
|------------------|-----------------------|
|------------------|---8--8-6-6------------|
|----------8-8-----|------------8-8--------|
|------8-8-----8-8-|-----------------8--8--|
|--6-6-------------|-----------------------|
|------------------|-----------------------|


  (Em)
  Gtr IV
   W                  +H.            E  E
|------------------|----------------------|
|-11---------------|-(11)-----------13-15-|
|------------------|----------------------|
|------------------|----------------------|
|------------------|----------------------|
|------------------|----------------------|
|
| Gtr III
|  W                  +H.            E  E
|------------------|----------------------|
|------------------|----------------------|
|-12---------------|-(12)-----------14-15-|
|------------------|----------------------|
|------------------|----------------------|
|------------------|----------------------|
|
| Gtrs I, II
|  PM--------------------------------------
|  E E E E E E E E     E  E E E E E  E  E
|------------------|----------------------|
|------------------|---8--8-6-6-----------|
|----------9-9-----|------------9-9-------|
|------9-9-----9-9-|-----------------9--9-|
|--7-7-------------|----------------------|
|------------------|----------------------|


  (F)                       (D/F#)
   H.                E  E    H.                E  E
|-------------------------|--------------------------|
|-16----------------13-15-|-16----------------18-20--|
|-------------------------|--------------------------|
|-------------------------|--------------------------|
|-------------------------|--------------------------|
|-------------------------|--------------------------|
|
|  H.                E  E    H.                E  E
|-------------------------|--------------------------|
|-------------------------|--------------------------|
|-17----------------14-15-|-17----------------14-15--|
|-------------------------|--------------------------|
|-------------------------|--------------------------|
|-------------------------|--------------------------|
|
|------------------------------------------------|
|  E  E  E  E  E  E  E  E    E  E  E  E  E  E  E  E
|-------------------------|--------------------------|
|-------------------------|-------------10-10--------|
|-------------10-10-------|--------------------------|
|-------10-10-------10-10-|-------12-12-------12-12--|
|--8--8-------------------|--9--9--------------------|
|-------------------------|--------------------------|


  N.C.(Gm)
   W                  +H.            E  E
|------------------|----------------------|
|------------------|----------------18-20-|
|-19---------------|-(19)-----------------|
|------------------|----------------------|
|------------------|----------------------|
|------------------|----------------------|
|
|  W                  +H.            E  E
|------------------|----------------------|
|------------------|----------------------|
|-12---------------|-(12)-----------14-15-|
|------------------|----------------------|
|------------------|----------------------|
|------------------|----------------------|
|
|  PM--------------------------------------
|  E E E E E E E E     E  E E E E E  E  E
|------------------|----------------------|
|------------------|----------------------|
|------------------|----------------------|
|----------5-5-----|---8--8-7-7-5-5-------|
|------5-5-----5-5-|-----------------5--5-|
|--3-3-------------|----------------------|


  (Eb)
   W                  +H.            E  E
|------------------|-----------------------|
|------------------|----------------18-20--|
|-19---------------|-(19)------------------|
|------------------|-----------------------|
|------------------|-----------------------|
|------------------|-----------------------|
|
|  W                  +H.            E  E
|------------------|-----------------------|
|------------------|-----------------------|
|-12---------------|-(12)-----------14-15--|
|------------------|-----------------------|
|------------------|-----------------------|
|------------------|-----------------------|
|
|--------------------------------------|
|  E E E E E E E E     E  E E E E E  E  E
|------------------|-----------------------|
|------------------|---8--8-6-6------------|
|----------8-8-----|------------8-8--------|
|------8-8-----8-8-|-----------------8--8--|
|--6-6-------------|-----------------------|
|------------------|-----------------------|


  (Em)
   W                  +H.            E  E
|------------------|----------------------|
|------------------|----------------18-20-|
|-19---------------|-(19)-----------------|
|------------------|----------------------|
|------------------|----------------------|
|------------------|----------------------|
|
|  W                  +H.            E  E
|------------------|----------------------|
|------------------|----------------------|
|-12---------------|-(12)-----------14-15-|
|------------------|----------------------|
|------------------|----------------------|
|------------------|----------------------|
|
|  PM--------------------------------------
|  E E E E E E E E     E  E E E E E  E  E
|------------------|----------------------|
|------------------|---8--8-6-6-----------|
|----------9-9-----|------------9-9-------|
|------9-9-----9-9-|-----------------9--9-|
|--7-7-------------|----------------------|
|------------------|----------------------|


                              D.S.S. al Dbl. Coda
  (F)                       (D/F#)
   H.                E  E    H.                Q
|-17----------------------|-17-----------------------|
|-------------------19-20-|--------------------------|
|-------------------------|--------------------------|
|-------------------------|--------------------------|
|-------------------------|--------------------------|
|-------------------------|--------------------------|
|
|  H.                E  E    H.                Q
|-------------------------|--------------------------|
|-------------------------|--------------------------|
|-17----------------14-15-|-17-----------------------|
|-------------------------|--------------------------|
|-------------------------|--------------------------|
|-------------------------|--------------------------|
|
|------------------------------------------------|
|  E  E  E  E  E  E  E  E    E  E  E  E  E  E  E  E
|-------------------------|--------------------------|
|-------------------------|-------------10-10--------|
|-------------10-10-------|--------------------------|
|-------10-10-------10-10-|-------12-12-------12-12--|
|--8--8-------------------|--9--9--------------------|
|-------------------------|--------------------------|


  &&
  E5                             C5          D5                      E5
                            >
    Q.     E  +Q     Q     +W                W                  W
|-----------------------|------------------|-----------------|-----------------|
|-----------------------|------------------|-----------------|-----------------|
|-/16-----14-(14)---12--|-(12)-------------|-----------------|-----------------|
|-----------------------|------------------|-----------------|-----------------|
|-----------------------|------------------|-----------------|-----------------|
|-----------------------|------------------|-----------------|-----------------|
|
|   Q.     E  +Q     Q     +W                Q  E E +E  E Q    +W
|-----------------------|------------------|-----------------|-----------------|
|-----------------------|------------------|-----------------|-----------------|
|-/12-----11-(11)----9--|--(9)-------------|------------7----|-----------------|
|-----------------------|------------------|-9--7-9-(9)---9--|-(9)-------------|
|-----------------------|------------------|-----------------|-----------------|
|-----------------------|------------------|-----------------|-----------------|
|
|   Q   E  E  +E  E  Q      E  E Q  Q  E E   Q  E E +E  E Q     E  E Q  Q  E E
|-----------------------|------------------|-----------------|-----------------|
|-----------------------|------------------|-----------------|-----------------|
|-----------------------|------------------|-----------------|-----------------|
|---9---x--9--(9)-x--9--|---x--x-5--5--x-x-|-7--x-7-(7)-x-7--|--x--x-9--9--x-x-|
|---7---x--7--(7)-x--7--|---x--x-3--3--x-x-|-5--x-5-(5)-x-5--|--x--x-7--7--x-x-|
|-----------------------|------------------|-----------------|-----------------|


 Outro
  E5                C5
    Q.      E  +Q    Q     +H      +E   E  E  E
|-----------------------|-----------------------|
|--15b17---15-(15)--12--|-(12)----(12)-12-15-17-|
|-----------------------|-----------------------|
|-----------------------|-----------------------|
|-----------------------|-----------------------|
|-----------------------|-----------------------|
|
|   Q.      E  +Q    Q     +H      +E   E  E  E
|-----------------------|-----------------------|
|-----------------------|-----------------------|
|-/12------11-(11)---9--|--(9)-----(9)--9-11-12-|
|-----------------------|-----------------------|
|-----------------------|-----------------------|
|-----------------------|-----------------------|
|
|   H.               Q     +W
|-----------------------|-----------------------|
|-----------------------|-----------------------|
|-----------------------|-----------------------|
|---9----------------5--|--(5)------------------|
|---7----------------3--|--(3)------------------|
|-----------------------|-----------------------|


  D5               E5
   Q.      E  +Q    Q     +E      +E       +Q    H
|----------------------|------------------------------|
|-17b19---17-(17)--15--|-(15)b17-(15)pb17r(15)--12----|
|----------------------|------------------------------|
|----------------------|------------------------------|
|----------------------|------------------------------|
|----------------------|------------------------------|
|
|  Q.      E  +Q    Q     +E      +E       +Q    H
|----------------------|------------------------------|
|----------------------|------------------------------|
|-14------12-(12)--11--|-(11)b12-(11)pb12r(11)--------|
|----------------------|------------------------14----|
|----------------------|------------------------------|
|----------------------|------------------------------|
|
|  H.               Q     +W
|----------------------|------------------------------|
|----------------------|------------------------------|
|----------------------|------------------------------|
|--7----------------9--|--(9)-------------------------|
|--5----------------7--|--(7)-------------------------|
|----------------------|------------------------------|


  E5                C5
    Q.      E  +Q    Q     +W
|-----------------------|-------------|
|--15b17---15-(15)--12--|-(12)--------|
|-----------------------|-------------|
|-----------------------|-------------|
|-----------------------|-------------|
|-----------------------|-------------|
|
|   Q.      E  +Q    Q     +W
|-----------------------|-------------|
|-----------------------|-------------|
|-/12------11-(11)---9--|--(9)--------|
|-----------------------|-------------|
|-----------------------|-------------|
|-----------------------|-------------|
|
|   H.               Q     +W
|-----------------------|-------------|
|-----------------------|-------------|
|-----------------------|-------------|
|---9----------------5--|--(5)--------|
|---7----------------3--|--(3)--------|
|-----------------------|-------------|


  (E5)                            E5
  |---3---| |---3---|  |---3----|
  E  E    E E  E    E  E   E    E  Q     +Q    H.
|-------------------------------------|--------------*|
|---------------------10h=12p==10-----|--------------*|
|-----------9h11h==12-------------12--|-(12)\--------*|
|-9h10h==12---------------------------|--------------*|
|-------------------------------------|--------------*|
|-------------------------------------|--------------*|
|
| Q         E    E    +E     E     Q     +Q    H.
|-------------------------------------|--------------*|
|-------------------------------------|--------------*|
|----------------------------7--------|--------------*|
|-9---------7----9----(9)----------9--|--(9)\--------*|
|-------------------------------------|--------------*|
|-------------------------------------|--------------*|
|
| E    E    E    E     E     E     Q     +Q    H.
|-------------------------------------|--------------*|
|-------------------------------------|--------------*|
|-------------------------------------|--------------*|
|-7----7----7----7-----------7-----9--|--(9)\--------*|
|-5----5----5----5-----------5-----7--|--(7)\--------*|
|-------------------------------------|--------------*|



Duration Legend
---------------
W - whole; H - half; Q - quarter; E - 8th; S - 16th; T - 32nd; X - 64th; a - acciaccatura
+ - note tied to previous; . - note dotted; .. - note double dotted
Uncapitalized letters represent notes that are staccato (1/2 duration)
Irregular groupings are notated above the duration line
Duration letters will always appear directly above the note/fret number it represents the
duration for.  Duration letters with no fret number below them represent rests.  Multi-
bar rests are notated in the form Wxn, where n is the number of bars to rest for.  Low
melody durations appear below the staff

Tablature Legend
----------------
 h   - hammer-on
 p   - pull-off
 b   - bend
 pb  - pre-bend
 r   - bend release (if no number after the r, then release immediately)
 /\  - slide into or out of (from/to "nowhere")
 s   - legato slide
 S   - shift slide
 - natural harmonic
[n]  - artificial harmonic
n(n) - tapped harmonic
 ~   - vibrato
 tr  - trill
 T   - tap
 TP  - trem. picking
 PM  - palm muting
\n/  - tremolo bar dip; n = amount to dip
 \n  - tremolo bar down
 n/  - tremolo bar up
/n\  - tremolo bar inverted dip
 =   - hold bend; also acts as connecting device for hammers/pulls
 <> - volume swell (louder/softer)
 x   - on rhythm slash represents muted slash
 o   - on rhythm slash represents single note slash

Misc Legend
-----------
 |  - bar
||  - double bar
||o - repeat start
o|| - repeat end
*|  - double bar (ending)
 :  - bar (freetime)
 $  - Segno
 &  - Coda
Tempo markers -  = BPM(8/16=s8/s16), where s8 = swing 8ths, s16 = swing 16ths

Tap to rate this tab
# A B C D E F G H I J K L M N O P Q R S T U V W X Y Z