Guitaretab - guitar tabs
Song name
# A B C D E F G H I J K L M N O P Q R S T U V W X Y Z

Arch Enemy - Snow Bound tab

#----------------------------------PLEASE NOTE---------------------------------#
#This file is the author's own work and represents their interpretation of the #
#song. You may only use this file for private study, scholarship, or research. #
#------------------------------------------------------------------------------#

SNOW BOUND
As recorded by Arch Enemy

Transcribed by psychotim
	



Gtr I (C F Bb Eb G C) - 'Acoustic'
Gtr II (C F Bb Eb G C) - 'Flute'
Gtr III (C F Bb Eb G C) - 'Lead'

 Theme1
 4/4
  Gtr I
  E  E E E E E  E E    E  E E E E E E E
|----------0--------|-------------------|
|--------0---0------|---------0-------0-|
|------0--------0---|-------0-------0---|
|----5------------5-|-----5-------4-----|
|-7-----------------|--7--------5-------|
|-------------------|-------------------|
|
| Gtr II
| H.            Q      H.           Q
|-------------------|-------------------|
|-------------------|-------------------|
|-9------------11---|---------------9---|
|-------------------|-12----------------|
|-------------------|-------------------|
|-------------------|-------------------|


  E E E E E E E E    E  E E E E E  E E
|---------0-------|-----------0---------|
|-------0---0-----|---------0---0-------|
|-----0-------0---|-------0--------0----|
|---2-----------2-|-----2------------2--|
|-3---------------|--3------------------|
|-----------------|---------------------|
|
| W                 +H.            Q
|-----------------|---------------------|
|-----------------|---------------------|
|-----------------|---------------------|
|-9---------------|-(9)-----------------|
|-----------------|---------------12----|
|-----------------|---------------------|


   E  E E E E E E E   E  E E E E E  E E
|-----------0-------|----------0--------|
|-------3-----3-----|--------0---0------|
|-----2---2-----2---|------0--------0---|
|--0--------------0-|----5------------5-|
|-------------------|-2-----------------|
|-------------------|-------------------|
|
|  H.           Q     H.            Q
|-------------------|-------------------|
|-------------------|-------------------|
|---------------9---|-------------------|
|-12----------------|-9-----------------|
|-------------------|--------------12---|
|-------------------|-------------------|
|
| Gtr III
|  W                  W
|-------------------|-------------------|
|-------------------|-------------------|
|-------------------|-------------------|
|-------------------|-------------------|
|-------------------|-------------------|
|-------------------|-------------------|


   E  E E E E E E E    W
|-----------0-------|-^3----------------|
|-------------0-----|-^5----------------|
|---------0-----0---|-^4----------------|
|-------5---------5-|-^5----------------|
|-----2-------------|-^3----------------|
|--0----------------|-------------------|
|
|  H.           Q      W
|-------------------|-------------------|
|-------------------|-------------------|
|-------------------|-------------------|
|-------------------|-------------------|
|-10------------9---|-------------------|
|-------------------|-12----------------|
|
|  W                   H     E.  E.  E
|-------------------|-------------------|
|-------------------|-------15--13--12--|
|-------------------|-------------------|
|-------------------|-------------------|
|-------------------|-------------------|
|-------------------|-------------------|


 Theme2
   E  E E E E E  E E     E  E E E  E  E     E  E
|-----------0--------|---------------------------|
|---------0---0------|----------0--------------0-|
|-------0--------0---|--------0-------------0----|
|-----5------------5-|------5---------4----------|
|--7-----------------|---7---------5-------------|
|--------------------|---------------------------|
|
|  H.            Q       H.                 Q
|--------------------|---------------------------|
|--------------------|---------------------------|
|--9------------11---|----------------------9----|
|--------------------|--12-----------------------|
|--------------------|---------------------------|
|--------------------|---------------------------|
|
|  W                    +H         e.    e.    e
|--------------------|---------------------------|
|--------------------|------------15----13----12-|
|-12-----------------|-(12)----------------------|
|--------------------|---------------------------|
|--------------------|---------------------------|
|--------------------|---------------------------|


   E E E E E E E E     E  E E E  E  E      E  E
|----------0-------|-------------0--------------|
|--------0---0-----|----------0-----0-----------|
|------0-------0---|--------0--------------0----|
|----2-----------2-|------2-------------------2-|
|--3---------------|---3------------------------|
|------------------|----------------------------|
|
|  W                  +H.                  Q
|------------------|----------------------------|
|------------------|----------------------------|
|------------------|----------------------------|
|--9---------------|--(9)-----------------------|
|------------------|----------------------12----|
|------------------|----------------------------|
|
|  W                  +H         E.    E.     E
|------------------|----------------------------|
|------------------|------------15----13-----12-|
|-12---------------|-(12)-----------------------|
|------------------|----------------------------|
|------------------|----------------------------|
|------------------|----------------------------|


   E  E E E E E   E  E       E  E E   E  E E  E  E
|-----------0-------------|--------------0---------|
|-------3-----3-----------|-----------0----0-------|
|-----2---2-------2-------|-------0-----------0----|
|--0-----------------0----|-----5----------------5-|
|-------------------------|--2---------------------|
|-------------------------|------------------------|
|
|  H.             Q          H.               Q
|-------------------------|------------------------|
|-------------------------|------------------------|
|-----------------9-------|------------------------|
|-12----------------------|--9---------------------|
|-------------------------|------------------12----|
|-------------------------|------------------------|
|
|  H.            +E  S  S    Q.       Q    E  e  e
|-------------------------|------------------------|
|-------------------------|------------------------|
|-12------------(12)-9-12-|-11------[11]------9-11-|
|-------------------------|------------------------|
|-------------------------|------------------------|
|-------------------------|------------------------|


   E       E  E E E E E E    W
|-----------------0-------|-^3-----------------|
|-------------------0-----|-^5-----------------|
|---------------0-----0---|-^4-----------------|
|-------------5---------5-|-^5-----------------|
|----------2--------------|-^3-----------------|
|--0----------------------|--------------------|
|
|  H.                 Q      W
|-------------------------|--------------------|
|-------------------------|--------------------|
|-------------------------|--------------------|
|-------------------------|--------------------|
|-10------------------9---|--------------------|
|-------------------------|-12-----------------|
|
|  E      +E  H       Q      H     E.  E.  E
|-------------------------|--------------------|
|-------------------------|-------15--13--12---|
|-11pb12r(11)-9-----------|--------------------|
|-------------------------|--------------------|
|-------------------------|--------------------|
|-------------------------|--------------------|


 Theme3
   E E E E E E    E    E     E  E E E  E  E     E  E
|----------0-------------|---------------------------|
|--------0---0-----------|----------0--------------0-|
|------0----------0------|--------0-------------0----|
|----5-----------------5-|------5---------4----------|
|--7---------------------|---7---------5-------------|
|------------------------|---------------------------|
|
|          |----3----|
|  H       Q    Q    Q       W
|------------------------|---------------------------|
|------------------------|---------------------------|
|----------9---11--------|---9-----------------------|
|-------------------12---|---------------------------|
|------------------------|---------------------------|
|------------------------|---------------------------|
|
|  W                        +H         E.    E.    E
|------------------------|---------------------------|
|------------------------|------------15----13----12-|
|-12---------------------|-(12)----------------------|
|------------------------|---------------------------|
|------------------------|---------------------------|
|------------------------|---------------------------|


    E  E E E E E    E    E     E  E E E  E  E     E  E
|------------0-------------|-------------0-------------|
|----------0---0-----------|----------0-----0----------|
|--------0----------0------|--------0-------------0----|
|------2-----------------2-|------2------------------2-|
|---3----------------------|---3-----------------------|
|--------------------------|---------------------------|
|
|            |----3----|
|  +H        Q    Q    Q       W
|--------------------------|---------------------------|
|--------------------------|---------------------------|
|--(9)-------9---11--------|---9-----------------------|
|---------------------12---|---------------------------|
|--------------------------|---------------------------|
|--------------------------|---------------------------|
|
|   W                         +H         E.    E.    E
|--------------------------|---------------------------|
|--------------------------|------------15----13----12-|
|-[12]---------------------|-(12)----------------------|
|--------------------------|---------------------------|
|--------------------------|---------------------------|
|--------------------------|---------------------------|

[ Tab from: http://www.guitaretab.com/a/arch-enemy/35599.html ]
   E  E E E E E      E      E        E  E E   E    E   E E  E
|-----------0---------------------|----------------0----------|
|-------3-----3-------------------|-----------0--------0------|
|-----2---2----------2------------|-------0--------------0----|
|--0------------------------0-----|-----5-------------------5-|
|---------------------------------|--2------------------------|
|---------------------------------|---------------------------|
|
|           |-----3------|
| +H        Q    Q       Q           W
|---------------------------------|-(9)-----------------------|
|---------------------------------|---------------------------|
|-(9)-------9---11----------------|---------------------------|
|-----------------------12--------|---------------------------|
|---------------------------------|---------------------------|
|---------------------------------|---------------------------|
|
|  H.               +E      S   S    Q.       E   +Q     E  e
|---------------------------------|---------------------------|
|---------------------------------|---------------------------|
|-12---------------(12)----[9]-12-|-11------[11]-(11)\---9-11-|
|---------------------------------|---------------------------|
|---------------------------------|---------------------------|
|---------------------------------|---------------------------|


   E       E  E  E E E  E E    H      E.  E.  E
|------------------0--------|-^3------------------|
|--------------------0------|-^5------------------|
|----------------0------0---|-^4------4---5---7---|
|-------------5-----------5-|-^5------------------|
|----------2----------------|-^3------------------|
|--0------------------------|---------------------|
|
|  H.                   Q      W
|---------------------------|---------------------|
|---------------------------|---------------------|
|-12-------------------11---|--9------------------|
|---------------------------|---------------------|
|---------------------------|---------------------|
|---------------------------|---------------------|
|
|  E      +E  H.              +H      E.  E.  E
|---------------------------|---------------------|
|---------------------------|--------12--13--15---|
|-11pb12r(11)-9-------------|-(9)-----------------|
|---------------------------|---------------------|
|---------------------------|---------------------|
|---------------------------|---------------------|


 Theme4
   E   E            E  E E E   E   E       E  E E E E E   E   E
|------------------------0--------------|-----------3--------------|
|--------------------------0------------|-------3-----3------------|
|-------------------2----------2--------|-----2---2-------2--------|
|------2---------------2-----------2----|--0------------------0----|
|--0------------------------------------|--------------------------|
|---------------------------------------|--------------------------|
|
| Gtr III
|  E  +S      +S   +H         +E   S  S    H.            +E   S  S
|---------------------------------17-15-|-14------------(14)-14-15-|
|-15-(15)b17-(15)-(15)-------(15)-------|--------------------------|
|---------------------------------------|--------------------------|
|---------------------------------------|--------------------------|
|---------------------------------------|--------------------------|
|---------------------------------------|--------------------------|


   E  E E E E E   E    E         E  E E E E  E  E  E
|-----------3----------------|------------0--------------|
|-------------3--------------|--------0------0-----------|
|-------0---------0----------|------0---0-------0--------|
|-----0---0------------0-----|---------------------0-----|
|----------------------------|---3-----------------------|
|--3-------------------------|---------------------------|
|
|  H.            +E    S   S     Q.          Q. E  S  S
|----------------------------|---------------------------|
|-15------------(15)-[17]-15-|-[17]---------17\----------|
|----------------------------|--------------------12-14--|
|----------------------------|---------------------------|
|----------------------------|---------------------------|
|----------------------------|---------------------------|


   E       E   E E E E   E    E      E            E E E  E     E   E          E
|------------------0-------------|-----------------------0-------------------------|
|--------------------0-----------|------------------0----------0-------------------|
|--------------0---------0-------|----------------0---0------------0---------------|
|----------0-----0------------0--|-------------------------------------------------|
|--------------------------------|---3----------------------------------------3----|
|--2-----------------------------|-------------------------------------------------|
|
|  E      +E   Q   Q     E    e      S       +S   Q   E  Q        +T    T  S  E
|--------------------------------|-------------------------------------------------|
|--------------------------------|-------------------------------------------------|
|-14b16==(14)r12-------[12]-[14]-|-[14]b16==(14)r12-----12b14====(12)r-12-14-14b16-|
|--------------------------------|-------------------------------------------------|
|--------------------------------|-------------------------------------------------|
|--------------------------------|-------------------------------------------------|


   E    E E  E   E      E E  E       W
|----------------0----------------|-^0----------------|
|-----------------------0---------|-^1----------------|
|---------2---------------2-------|-^2----------------|
|-------2----2---------------2----|-^2----------------|
|--0------------------------------|-^0----------------|
|---------------------------------|-------------------|
|
|  Q.        E   E      Q    S  S    H     E.  E.  E
|---------------------------------|-------------------|
|---------------------------------|-------15--13--12--|
|---------------------------------|-------------------|
|---------------------------------|-------------------|
|-10b12-----10-[12]b14-12---10----|-------------------|
|------------------------------10-|-12----------------|


   E E E E E E E E     E  E E E  E  E     E  E
|----------0-------|-------------3-------------|
|------------0-----|--------3-------3----------|
|------2-------2---|------2---2-----------2----|
|----2---2-------2-|---0---------------------0-|
|--0---------------|---------------------------|
|------------------|---------------------------|
|
|  W                  +H         E.    E.    E
|------------------|---------------------------|
|------------------|------------15----13----12-|
|-12---------------|-(12)----------------------|
|------------------|---------------------------|
|------------------|---------------------------|
|------------------|---------------------------|


    E  E E E E E  E  E          E E E E  E  E     E  E
|------------3---------------|-----------0-------------|
|--------------3-------------|------0-------0----------|
|--------0--------0----------|----0---0-----------0----|
|------0---0---------0-------|-----------------------0-|
|----------------------------|--3----------------------|
|---3------------------------|-------------------------|
|
|                    |--3--|
|   H.            E  S  S  S    H        E.    E.    E
|----------------------------|-------------------------|
|----------------------------|----------15----13----12-|
|-[12]-----------14p12h14p12-|-11----------------------|
|----------------------------|-------------------------|
|----------------------------|-------------------------|
|----------------------------|-------------------------|


                              Q=110                Q
    E  E E E E E   E    E        E  E E E E E E  E
|------------0----------------|-----------0--------|
|--------------0--------------|-------0-----0------|
|--------0---------0----------|-----0---0-----0----|
|------0---0------------0-----|------------------2-|
|-----------------------------|--3-----------------|
|---2-------------------------|--------------------|
|
|   H.             E    S   S    H.           E  E
|-----------------------------|--------------------|
|-----------------------------|--------------------|
|-[12]-----------[12]-[12]-12-|-11------------9-11-|
|-----------------------------|--------------------|
|-----------------------------|--------------------|
|-----------------------------|--------------------|


 =100                                                Q=90
   E            E  E   E  E    E      E       E         E   E   E   E   E   Q.
|-------------------------0--------------------------|---------------------<5>---*|
|------------------0-----------0---------------------|---------<5>-----<5>-------*|
|---------------0------0--------------0--------------|-<7>-<5>-----<5>-----------*|
|----------------------------------------------------|---------------------------*|
|--3------------------------------------------3------|---------------------------*|
|----------------------------------------------------|---------------------------*|
|
|                         |-----------3------------|
|  S      +S   +Q     +E  E  E   S  S S  S S  S S  S    W
|----------------------------------------------------|---------------------------*|
|----------------------------------------------------|---------------------------*|
|-11b12==(11)-(11)r==(11)-9h11p==9h11p9h11p9h11p9h11-|--9------------------------*|
|----------------------------------------------------|---------------------------*|
|----------------------------------------------------|---------------------------*|
|----------------------------------------------------|---------------------------*|



Duration Legend
---------------
W - whole; H - half; Q - quarter; E - 8th; S - 16th; T - 32nd; X - 64th; a - acciaccatura
+ - note tied to previous; . - note dotted; .. - note double dotted
Uncapitalized letters represent notes that are staccato (1/2 duration)
Irregular groupings are notated above the duration line
Duration letters will always appear directly above the note/fret number it represents the
duration for.  Duration letters with no fret number below them represent rests.  Multi-
bar rests are notated in the form Wxn, where n is the number of bars to rest for.  Low
melody durations appear below the staff

Tablature Legend
----------------
 h   - hammer-on
 p   - pull-off
 b   - bend
 pb  - pre-bend
 r   - bend release (if no number after the r, then release immediately)
 /\  - slide into or out of (from/to "nowhere")
 s   - legato slide
 S   - shift slide
 - natural harmonic
[n]  - artificial harmonic
n(n) - tapped harmonic
 ~   - vibrato
 tr  - trill
 T   - tap
 TP  - trem. picking
 PM  - palm muting
\n/  - tremolo bar dip; n = amount to dip
 \n  - tremolo bar down
 n/  - tremolo bar up
/n\  - tremolo bar inverted dip
 =   - hold bend; also acts as connecting device for hammers/pulls
 <> - volume swell (louder/softer)
 x   - on rhythm slash represents muted slash
 o   - on rhythm slash represents single note slash

Misc Legend
-----------
 |  - bar
||  - double bar
||o - repeat start
o|| - repeat end
*|  - double bar (ending)
 :  - bar (freetime)
 $  - Segno
 &  - Coda
Tempo markers -  = BPM(8/16=s8/s16), where s8 = swing 8ths, s16 = swing 16ths

Related for Snow Bound tab
Advertisement will be closed in 10 seconds