Song name
# A B C D E F G H I J K L M N O P Q R S T U V W X Y Z

Arch Enemy - We Will Rise tab

Arch Enemy
We Will Rise
Anthems of Rebellion

p = pull off
h = hammer on
()= pull up

Just an amazing song from Arch Enemy, listen to the song for the rhythm.

submitted by RJ123

Intro:

Guitar 1

--------------------------------------------------------------------------------|
-----5-5-5-5-5-5-5-5-5--6-6-6-6--4-4-4-4----------------------------------------|
------------------------------------------5-5-5-5-5-5-5-5-5-5-5-5--4-4-4-4-4----|
--------------------------------------------------------------------------------|
--------------------------------------------------------------------------------|
--------------------------------------------------------------------------------| 3x

Guitar 2

--------------------------------------------------------------------------------|
--------------------------------------------------------------------------------|
--------------------------------------------------------------------------------|
----5-5-5-5-5-5-5-5-------------------------------------------------------------|
----3-3-3-3-3-3-3-3--6-6-6-6-6-6-6-6--3-3-3-3-3-3-3-3--5-5-5-5-5-5-5-5----------|
---------------------4-4-4-4-4-4-4-4--1-1-1-1-1-1-1-1--3-3-3-3-3-3-3-3----------| 3x

Verse:

Tear down      Wake up the    Ignorance        ...bliss
the walls,     world,         is not
---------      -----------    ----------      -----------|
---------      -----------    ----------      -----------|
---------      -----------    ----------      -----------|
--5------      -----------    ----------      -----------|
--3------      ----6------    ---3------      ----5------|
---------      ----4------    ---1------      ----3------|

So fed up      the second     Our time        is here and
with           best                           now!
---------      -----------    ----------      -----------|
---------      -----------    ----------      -----------|
---------      -----------    ----------      -----------|
--5------      -----------    ----------      ----6------|
--3------      ----6------    ---3------      ----4------|
---------      ----4------    ---1------      -----------|

I am the enemy...

-------------------------|
-------------------------|
-------------------------|
-------------------------|
------1h3p1h4p1h3--------|
--1h3--------------------| 7x

Chorus:

Guitar 1

--------------------------------------------------------------------------------|
-----5-5-5-5-5-5-5-5-5--6-6-6-6--4-4-4-4----------------------------------------|
------------------------------------------5-5-5-5-5-5-5-5-5-5-5-5--4-4-4-4-4----|
--------------------------------------------------------------------------------|
--------------------------------------------------------------------------------|
--------------------------------------------------------------------------------| 3x

Guitar 2

--------------------------------------------------------------------------------|
--------------------------------------------------------------------------------|
--------------------------------------------------------------------------------|
----5-5-5-5-5-5-5-5-------------------------------------------------------------|
----3-3-3-3-3-3-3-3--6-6-6-6-6-6-6-6--3-3-3-3-3-3-3-3--5-5-5-5-5-5-5-5----------|
---------------------4-4-4-4-4-4-4-4--1-1-1-1-1-1-1-1--3-3-3-3-3-3-3-3----------| 3x

Verse 2:

Stereotype     Playing the    Nothing         They all look
fools          games          Unique          the same
---------      -----------    ----------      -----------|
---------      -----------    ----------      -----------|
---------      -----------    ----------      -----------|
--5------      -----------    ----------      -----------|
--3------      ----6------    ---3------      ----5------|
---------      ----4------    ---1------      ----3------|

In this sea     I can be       Anything        Anything
of mediocrity                                  I want to be
---------       -----------    ----------      -----------|
---------       -----------    ----------      -----------|
---------       -----------    ----------      -----------|
--5------       -----------    ----------      ----6------|
--3------       ----6------    ---3------      ----4------|
---------       ----4------    ---1------      -----------|

I am the enemy...

-------------------------|
-------------------------|
-------------------------|
-------------------------|
------1h3p1h4p1h3--------|
--1h3--------------------| 7x

Chorus:

Guitar 1

--------------------------------------------------------------------------------|
-----5-5-5-5-5-5-5-5-5--6-6-6-6--4-4-4-4----------------------------------------|
------------------------------------------5-5-5-5-5-5-5-5-5-5-5-5--4-4-4-4-4----|
--------------------------------------------------------------------------------|
--------------------------------------------------------------------------------|
--------------------------------------------------------------------------------| 3x

Guitar 2

--------------------------------------------------------------------------------|
--------------------------------------------------------------------------------|
--------------------------------------------------------------------------------|
----5-5-5-5-5-5-5-5-------------------------------------------------------------|
----3-3-3-3-3-3-3-3--6-6-6-6-6-6-6-6--3-3-3-3-3-3-3-3--5-5-5-5-5-5-5-5----------|
---------------------4-4-4-4-4-4-4-4--1-1-1-1-1-1-1-1--3-3-3-3-3-3-3-3----------| 3x

Solo:

-------------------------------------------------------------------------------|
------------7--9-------------6--4--------------7--6-----7-4-6-7-6--------------|
---------8----------------5-----------------7----------------------------------|
--8---8------------5---5--------------7--7-------------------------------------|
-------------------------------------------------------------------------------|
-------------------------------------------------------------------------------|

-------------------------------------------------------------------------------|
------------7--9-------------6--4--------------7--6----14-11-13-14-11-13-14-15-|
---------8----------------5-----------------7----------------------------------|
--8---8------------5---5--------------7--7-------------------------------------|
-------------------------------------------------------------------------------|
-------------------------------------------------------------------------------|

-----------------------------------------------13--12--------------------------|
-------------------------------------------------------------------------------|
-----12--15-(15)--12--15--(15)--12--15--(15)-----------------------------------|
-------------------------------------------------------------------------------|
-------------------------------------------------------------------------------|
-------------------------------------------------------------------------------|

-------------------------------------------------------------------------------|
-------------------------------------------------------------------------------|
-----12--(15)-(15)-(15)-(15)-(15)-(15)-(15)-(15)-(15)-12h15p12h15p12h15p12h15--|
-------------------------------------------------------------------------------|
-------------------------------------------------------------------------------|
-------------------------------------------------------------------------------|

-----13-(15)--11---------------------------------------------------------------|
------------------13-----------------------------------------------------------|
---------------------12--------------------------------------------------------|
-------------------------13--12------------------------------------------------|
-------------------------------------------------------------------------------|
-------------------------------------------------------------------------------|


I am the enemy...

-------------------------|
-------------------------|
-------------------------|
-------------------------|
------1h3p1h4p1h3--------|
--1h3--------------------| 7x

Chorus:

Guitar 1

--------------------------------------------------------------------------------|
-----5-5-5-5-5-5-5-5-5--6-6-6-6--4-4-4-4----------------------------------------|
------------------------------------------5-5-5-5-5-5-5-5-5-5-5-5--4-4-4-4-4----|
--------------------------------------------------------------------------------|
--------------------------------------------------------------------------------|
--------------------------------------------------------------------------------| 3x

Guitar 2

--------------------------------------------------------------------------------|
--------------------------------------------------------------------------------|
--------------------------------------------------------------------------------|
----5-5-5-5-5-5-5-5-------------------------------------------------------------|
----3-3-3-3-3-3-3-3--6-6-6-6-6-6-6-6--3-3-3-3-3-3-3-3--5-5-5-5-5-5-5-5----------|
---------------------4-4-4-4-4-4-4-4--1-1-1-1-1-1-1-1--3-3-3-3-3-3-3-3----------| 3x

Outro:

------8-----8------8------11------11------11-------13------13------13----------|
--7h8---7h8----7h8----8h9----8h9------8h9-----9h13----9h13----9h13-------------|
-------------------------------------------------------------------------------|
-------------------------------------------------------------------------------|
-------------------------------------------------------------------------------|

---------15--------15---------15------13-(15)--11--13-(15)-10-11-10------------|
---12h15----12h15-----12h15-----------------------------------------11-13------|
-------------------------------------------------------------------------------|
-------------------------------------------------------------------------------|
-------------------------------------------------------------------------------|
-------------------------------------------------------------------------------|
-------------------------------------------------------------------------------|
Tap to rate this tab
# A B C D E F G H I J K L M N O P Q R S T U V W X Y Z