Song name
# A B C D E F G H I J K L M N O P Q R S T U V W X Y Z

Arch Enemy - Dead Eyes See No Future tab

I know this isnt mine and i jus copied someone elses work but its easier to have just 
solo instead of the whole song if thats all your trying to learn


Michael Ammot Solo' :

----------------------------------|----------------------------------|
----------15----------15----------|----------14----------14------14--|
--12--14------12--14------12--14--|--12--14------12--14------12------|
----------------------------------|----------------------------------|
----------------------------------|----------------------------------|
----------------------------------|----------------------------------|

----------------------------------|----------------------------------|
------12--14------12--14------12--|--14------12--14------12--14------|
--11----------11----------11------|------11----------11----------12--|
----------------------------------|----------------------------------|
----------------------------------|----------------------------------|
----------------------------------|----------------------------------|

----------------------------------|----------------------------------|
----------15----------15----------|----------14----------14------14--|
--12--14------12--14------12--14--|--12--14------12--14------12------|
----------------------------------|----------------------------------|
----------------------------------|----------------------------------|
----------------------------------|----------------------------------|

----------------------------------|----------------------------------|
------12--14------12--14------12--|--14------12--14------12--14------|
--11----------11----------11------|------11----------11----------12--|
----------------------------------|----------------------------------|
----------------------------------|----------------------------------|
----------------------------------|----------------------------------|

----------------------------------|----------------------------------|
----------15----------15----------|----------14----------14------14--|
--12--14------12--14------12--14--|--12--14------12--14------12------|
----------------------------------|----------------------------------|
----------------------------------|----------------------------------|
----------------------------------|----------------------------------|

----------------------------------|----------------------------------|
------12--14------12--14------12--|--14------12--14------12--14------|
--11----------11----------11------|------11----------11----------12--|
----------------------------------|----------------------------------|
----------------------------------|----------------------------------|
----------------------------------|----------------------------------|

----------------------------------|----------------------------------|
----------15----------15----------|----------14----------14------14--|
--12--14------12--14------12--14--|--12--14------12--14------12------|
----------------------------------|----------------------------------|
----------------------------------|----------------------------------|
----------------------------------|----------------------------------|

----------------------------------|---------------------|
------12--14------12--14--12--14--|--12/-----------x----|
--11----------11------------------|---------------------|
----------------------------------|---------------------|
----------------------------------|---------------------|
----------------------------------|---------------------|
Tap to rate this tab
# A B C D E F G H I J K L M N O P Q R S T U V W X Y Z