Song name
# A B C D E F G H I J K L M N O P Q R S T U V W X Y Z

Arch Enemy - Carry The Cross tab

#----------------------------------PLEASE NOTE---------------------------------#
#This file is the author's own work and represents their interpretation of the #
#song. You may only use this file for private study, scholarship, or research. #
#------------------------------------------------------------------------------#

CARRY THE CROSS
As recorded by Arch Enemy
(From the 2005 Album DOOMSDAY MACHINE)

Transcribed by SoggieMufin
	

Words by Angela Gossow Music by Michael Amott, Daniel Erlandsson, Christopher Amott.

Gtr I (C F Bb Eb G C) - 'Untitled'
Gtr II (C F Bb Eb G C) - 'Untitled'
Gtr III (C F Bb Eb G C) - 'Clean'
Gtr IV (C F Bb Eb G C) - 'Untitled'
Gtr V (C F Bb Eb G C) - 'Untitled'

 Intro
  Q=125
  N.C.
 1/8   4/4
  Gtr IV
  E      S S S S S S S S S S S S S S S S   S S S S S S S S S S S S S S S S   3x
|---||--/7p0h7p0h7p0h7p0h7p0h7p0h7p0h7p0h|=5p0h5p0h5p0h5p0h3p0h3p0h2p0h2p0---||
|---||o----------------------------------|----------------------------------o||
|---||-----------------------------------|-----------------------------------||
|---||-----------------------------------|-----------------------------------||
|---||o----------------------------------|----------------------------------o||
|---||-----------------------------------|-----------------------------------||


   S S S S S S S S S S S S S S S S   S S S S S S S S S S S S  S  S S S
|-/7p0h7p0h7p0h7p0h7p0h7p0h7p0h7p0h|=5p0h5p0h5p0h5p0h3p0h3p0h=2p=0h2p0-|
|----------------------------------|-----------------------------------|
|----------------------------------|-----------------------------------|
|----------------------------------|-----------------------------------|
|----------------------------------|-----------------------------------|
|----------------------------------|-----------------------------------|
|
| Gtrs I, II
|  W                                 H.                       Q
|----------------------------------|-----------------------------------|
|----------------------------------|-----------------------------------|
|----------------------------------|-----------------------------------|
|----------------------------------|-----------------------------------|
|----------------------------------|-----------------------------------|
|----------------------------------|-------------------------15\-------|


     S S S S S S S S S S S S S S S S   S S S S S S S S S S S S S S S S   4x
||--/7p0h7p0h7p0h7p0h7p0h7p0h7p0h7p0h|=5p0h5p0h5p0h5p0h3p0h3p0h2p0h2p0---||
||o----------------------------------|----------------------------------o||
||-----------------------------------|-----------------------------------||
||-----------------------------------|-----------------------------------||
||o----------------------------------|----------------------------------o||
||-----------------------------------|-----------------------------------||
|
|    S S S S S S S S S S S S S S S S   S S S S S S S S S S S S S S S S   4x
||-----------------------------------|-----------------------------------||
||o----------------------------------|----------------------------------o||
||-----------------------------------|-----------------------------------||
||-----------------------------------|-----------------------------------||
||o--------------------------3-3-3-3-|-----------------6-6-6-6-6-6-6-6--o||
||---0-0-0-0-0-0-0-0-2-2-2-2---------|-5-5-5-5-5-5-5-5-------------------||


  Dm               E/D                                 Dm
  Gtr III
  E E E E +H        E  E E E +H       E E E E +H       E E E E +H
|-------5-(5)----|---------7-(7)----|-------4-(4)----|-------5-(5)----|
|-----6----------|-------9----------|-----5----------|-----6----------|
|---7------------|-----9------------|---4------------|---7------------|
|-0--------------|--0---------------|-0--------------|-0--------------|
|----------------|------------------|----------------|----------------|
|----------------|------------------|----------------|----------------|
|
| Gtr II
|                   >
| W                +W                 W                W
|----------------|------------------|----------------|----------------|
|----------------|------------------|----------------|----------------|
|----------------|------------------|----------------|----------------|
|-7--------------|-(7)--------------|----------------|----------------|
|-5--------------|-(5)--------------|----------------|----------------|
|----------------|------------------|----------------|----------------|


  Dm               Dm7                Eb/Db            Dmadd2
  E E E E +H       E  E  E E +H       E E E E +H       E E E E +H
|-------5-(5)----|---------8-(8)----|-------3-(3)----|-------0-(0)----|
|-----6----------|------10----------|-----4----------|-----6----------|
|---7------------|---10-------------|---3------------|---7------------|
|-0--------------|-0----------------|-0--------------|-0--------------|
|----------------|------------------|----------------|----------------|
|----------------|------------------|----------------|----------------|


   Verse
    Dm               E/D                               Dm
    E E E E +H       E E E E +H       E E E E +H       E E E E +H
||--------5-(5)----|-------7-(7)----|-------4-(4)----|-------5-(5)----|
||o-----6----------|-----9----------|-----5----------|-----6----------|
||----7------------|---9------------|---4------------|---7------------|
||--0--------------|-0--------------|-0--------------|-0--------------|
||o----------------|----------------|----------------|----------------|
||-----------------|----------------|----------------|----------------|


  Dm               E/D                Eb/Db            Dmadd2
  E E E E +H       E  E  E E +H       E E E E +H       E E E E +H
|-------5-(5)----|---------8-(8)----|-------3-(3)----|-------0-(0)-----||
|-----6----------|------10----------|-----4----------|-----6----------o||
|---7------------|---10-------------|---3------------|---7-------------||
|-0--------------|-0----------------|-0--------------|-0---------------||
|----------------|------------------|----------------|----------------o||
|----------------|------------------|----------------|-----------------||


   Pre Chorus
    F5                         G5   A5                 F#5
    Gtr IV
    Q.   Q.   Q    +E  Q.   Q  Q    Q.   Q.   Q    +E  Q.   Q  Q
||---------------|----------------|--------------|------------------||
||o--------------|----------------|--------------|-----------------o||
||--5----4-------|-----5----4-----|-5----4-------|-----6----4-------||
||------------7--|-(7)---------5--|-----------7--|-(7)---------7----||
||o--------------|----------------|--------------|-----------------o||
||---------------|----------------|--------------|------------------||
|
|   Gtrs I, II
|   Q.   Q.   Q    +E  Q.   Q  Q    Q.   Q.   Q    +E  Q.   Q  Q
||---------------|----------------|--------------|------------------||
||o--------------|----------------|--------------|-----------------o||
||---------------|----------------|--------------|------------------||
||---------------|----------------|--------------|------------------||
||o-3----3----3--|-(3)-3----3--5--|-7----7----7--|-(7)-4----4--4---o||
||--1----1----1--|-(1)-1----1--3--|-5----5----5--|-(5)-2----2--2----||


   Chorus
    N.C.
     S S S S S S S S S S S S S S S S   S S S S S S S S S S S S S S S S   4x
||--/7p0h7p0h7p0h7p0h7p0h7p0h7p0h7p0h|=5p0h5p0h5p0h5p0h3p0h3p0h2p0h2p0---||
||o----------------------------------|----------------------------------o||
||-----------------------------------|-----------------------------------||
||-----------------------------------|-----------------------------------||
||o----------------------------------|----------------------------------o||
||-----------------------------------|-----------------------------------||
|
|    S S S S S S S S S S S S S S S S   S S S S S S S S S S S S S S S S   4x
||-----------------------------------|-----------------------------------||
||o----------------------------------|----------------------------------o||
||-----------------------------------|-----------------------------------||
||-----------------------------------|-----------------------------------||
||o--------------------------3-3-3-3-|-----------------6-6-6-6-6-6-6-6--o||
||---0-0-0-0-0-0-0-0-2-2-2-2---------|-5-5-5-5-5-5-5-5-------------------||


 Verse
  Dm               E/D                                 Dm
  Gtr III
  E E E E +H        E  E E E +H       E E E E +H       E E E E +H
|-------5-(5)----|---------7-(7)----|-------4-(4)----|-------5-(5)----|
|-----6----------|-------9----------|-----5----------|-----6----------|
|---7------------|-----9------------|---4------------|---7------------|
|-0--------------|--0---------------|-0--------------|-0--------------|
|----------------|------------------|----------------|----------------|
|----------------|------------------|----------------|----------------|
|
| Gtrs I, II
|                   >
| W                +W                 W                W
|----------------|------------------|----------------|----------------|
|----------------|------------------|----------------|----------------|
|----------------|------------------|----------------|----------------|
|-7--------------|-(7)--------------|----------------|----------------|
|-5--------------|-(5)--------------|----------------|----------------|
|----------------|------------------|----------------|----------------|


  Dm               Dm7                Eb/Db            Dmadd2
  Gtr III
  E E E E +H       E  E  E E +H       E E E E +H       E E E E +H
|-------5-(5)----|---------8-(8)----|-------3-(3)----|-------0-(0)----|
|-----6----------|------10----------|-----4----------|-----6----------|
|---7------------|---10-------------|---3------------|---7------------|
|-0--------------|-0----------------|-0--------------|-0--------------|
|----------------|------------------|----------------|----------------|
|----------------|------------------|----------------|----------------|


  Dm               E/D                               Dm
  E E E E +H       E E E E +H       E E E E +H       E E E E +H
|-------5-(5)----|-------7-(7)----|-------4-(4)----|-------5-(5)----|
|-----6----------|-----9----------|-----5----------|-----6----------|
|---7------------|---9------------|---4------------|---7------------|
|-0--------------|-0--------------|-0--------------|-0--------------|
|----------------|----------------|----------------|----------------|
|----------------|----------------|----------------|----------------|


  Dm               Dm7                Eb/Db            Dmadd2
  E E E E +H       E  E  E E +H       E E E E +H       E E E E +H
|-------5-(5)----|---------8-(8)----|-------3-(3)----|-------0-(0)----|
|-----6----------|------10----------|-----4----------|-----6----------|
|---7------------|---10-------------|---3------------|---7------------|
|-0--------------|-0----------------|-0--------------|-0--------------|
|----------------|------------------|----------------|----------------|
|----------------|------------------|----------------|----------------|


 Pre Chorus
  F5                         G5   A5        A5       F#5
  Gtr IV
  Q.   Q.   Q    +E  Q.   Q  Q    Q.   Q.   Q    +E  Q.   Q  Q
|--------------|----------------|--------------|----------------|
|--------------|----------------|--------------|----------------|
|-5----4-------|-----5----4-----|-5----4-------|-----6----4-----|
|-----------7--|-(7)---------5--|-----------7--|-(7)---------7--|
|--------------|----------------|--------------|----------------|
|--------------|----------------|--------------|----------------|
|
| Gtrs I, II
| Q.   Q.   Q    +E  Q.   Q  Q    Q.   Q.   Q    +E  Q.   Q  Q
|--------------|----------------|--------------|----------------|
|--------------|----------------|--------------|----------------|
|--------------|----------------|--------------|----------------|
|--------------|----------------|--------------|----------------|
|-3----3----3--|-(3)-3----3--5--|-7----7----7--|-(7)-4----4--4--|
|-1----1----1--|-(1)-1----1--3--|-5----5----5--|-(5)-2----2--2--|


  F5                         G5   A5                 F#5
                                                          |-3-|
  Q.   Q.   Q    +E  Q.   Q  Q    Q.   Q.   Q    +E  Q.   Q Q Q
|--------------|----------------|--------------|-----------------|
|--------------|----------------|--------------|-----------------|
|-5----4-------|-----5----4-----|-5----4-------|-----6----4------|
|-----------7--|-(7)---------5--|-----------7--|-(7)--------7-7--|
|--------------|----------------|--------------|-----------------|
|--------------|----------------|--------------|-----------------|
|
|                                                         |-3-|
| Q.   Q.   Q    +E  Q.   Q  Q    Q.   Q.   Q    +E  Q.   Q Q Q
|--------------|----------------|--------------|-----------------|
|--------------|----------------|--------------|-----------------|
|--------------|----------------|--------------|-----------------|
|--------------|----------------|--------------|-----------------|
|-3----3----3--|-(3)-3----3--5--|-7----7----7--|-(7)-4----4-4-4--|
|-1----1----1--|-(1)-1----1--3--|-5----5----5--|-(5)-2----2-2-2--|


   Chorus
    N.C.
     S S S S S S S S S S S S S S S S   S S S S S S S S S S S S S S S S   4x
||--/7p0h7p0h7p0h7p0h7p0h7p0h7p0h7p0h|=5p0h5p0h5p0h5p0h3p0h3p0h2p0h2p0---||
||o----------------------------------|----------------------------------o||
||-----------------------------------|-----------------------------------||
||-----------------------------------|-----------------------------------||
||o----------------------------------|----------------------------------o||
||-----------------------------------|-----------------------------------||
|
|    S S S S S S S S S S S S S S S S   S S S S S S S S S S S S S S S S   4x
||-----------------------------------|-----------------------------------||
||o----------------------------------|----------------------------------o||
||-----------------------------------|-----------------------------------||
||-----------------------------------|-----------------------------------||
||o--------------------------3-3-3-3-|-----------------6-6-6-6-6-6-6-6--o||
||---0-0-0-0-0-0-0-0-2-2-2-2---------|-5-5-5-5-5-5-5-5-------------------||


   Bridge
    N.C.
    Gtr I
    Q   Q  Q   Q    Q   Q  Q  Q    Q   Q  Q  Q    Q   Q  Q  Q
||----------------|--------------|--------------|----------------||
||o---------------|-----------3--|-----------3--|---------------o||
||-----/5--7---9--|----/4--5-----|----/4--5-----|----/2--4--5----||
||----------------|--------------|--------------|----------------||
||o-0-------------|--------------|--------------|---------------o||
||----------------|-0------------|-3------------|-2--------------||
|
|   Gtr II
|   Q   Q  Q   Q    Q   Q  Q  Q    Q   Q  Q  Q    Q   Q  Q  Q
||----------------|--------------|--------------|----------------||
||o---------------|--------------|--------------|---------------o||
||----------------|-----------4--|-----------4--|-----------2----||
||-----/7--9--10--|----/5--7-----|----/5--7-----|----/4--5-------||
||o-0-------------|--------------|--------------|---------------o||
||----------------|-0------------|-3------------|-2--------------||


  Em                                 D
   Q    Q   Q   Q                     Q    Q   Q   Q
|------12--14--15------------------|------15--14--12------------------|
|----------------------------------|----------------------------------|
|-------9--11--12------------------|------12--11---9------------------|
|----------------------------------|----------------------------------|
|----------------------------------|----------------------------------|
|----------------------------------|----------------------------------|
|  Q    Q   Q   Q                     Q    Q   Q   Q
|
|  H.           S     +S       +E     H.           S     +S       +E
|----------------------------------|----------------------------------|
|----------------------------------|----------------------------------|
|----------------------------------|----------------------------------|
|----------------------------------|----------------------------------|
|-10-----------10b12-(10)pb12r(10)-|--9------------9b10--(9)pb10r=(9)-|
|-12-----------12b14-(12)pb14r(12)-|-10-----------10b12-(10)pb12r(10)-|
   H.           S     +S       +E     H.           S     +S       +E


  C                                  B
  Q    Q   Q   Q                   a  Q.    E  H
|-----12--14--15----------------|-14h15----14-14----|
|-------------------------------|-------------------|
|------9--11--12----------------|-11h12----11-11----|
|-------------------------------|-------------------|
|-------------------------------|-------------------|
|-------------------------------|-------------------|
| Q    Q   Q   Q                   a  Q.    E  H
|
| H.           S    +S      +E        W
|-------------------------------|-------------------|
|-------------------------------|-------------------|
|-------------------------------|-------------------|
|-------------------------------|-------------------|
|-7------------7b9--(7)pb9r=(7)-|-----6-------------|
|-8------------8b10-(8)pb10r(8)-|-----7-------------|
  H.           S    +S      +E        W


  Em                                 D
   Q    Q   Q   Q                     Q    Q   Q   Q
|------12--14--15------------------|------15--14--12------------------|
|----------------------------------|----------------------------------|
|-------9--11--12------------------|------12--11---9------------------|
|----------------------------------|----------------------------------|
|----------------------------------|----------------------------------|
|----------------------------------|----------------------------------|
|
|  H.           S     +S       +E     H.           S     +S       +E
|----------------------------------|----------------------------------|
|----------------------------------|----------------------------------|
|----------------------------------|----------------------------------|
|----------------------------------|----------------------------------|
|-10-----------10b12-(10)pb12r(10)-|--9------------9b10--(9)pb10r=(9)-|
|-12-----------12b14-(12)pb14r(12)-|-10-----------10b12-(10)pb12r(10)-|
   H.           S     +S       +E     H.           S     +S       +E


  C                               B
  Q    Q   Q   Q                   Q.      S  S  H
|-----12--14--15----------------|-17b19---17p15-17b19----|
|-------------------------------|------------------------|
|------9--11--12----------------|-14b16---14p12-14b16----|
|-------------------------------|------------------------|
|-------------------------------|------------------------|
|-------------------------------|------------------------|
|
| H.           S    +S      +E     W
|-------------------------------|------------------------|
|-------------------------------|------------------------|
|-------------------------------|------------------------|
|-------------------------------|------------------------|
|-7------------7b9--(7)pb9r=(7)-|--6---------------------|
|-8------------8b10-(8)pb10r(8)-|--7---------------------|
  H.           S    +S      +E     W


 Lead - Michael Amott
  Gm                                  F
   ~~~~~                                                 ~~~~~~~~~~~~~~
   H.         E              +S   S    E     +E       E  E     +Q.                       E
|-----------------------------------|----------------18-------------------------------------|
|-18b20------18b20----------(18)-15-|-18b20-(18)pb20----18b20-(18)pb20------------------15--|
|-----------------------------------|-------------------------------------------------------|
|-----------------------------------|-------------------------------------------------------|
|-----------------------------------|-------------------------------------------------------|
|-----------------------------------|-------------------------------------------------------|
|
|  H.         S     +S       +E        H.                                S     +S       +E
|-----------------------------------|-------------------------------------------------------|
|-----------------------------------|-------------------------------------------------------|
|-----------------------------------|-------------------------------------------------------|
|-----------------------------------|-------------------------------------------------------|
|-13---------13b15-(13)pb15r(13)----|-12--------------------------------12b13-(12)pb13r(12)-|
|-15---------15b17-(15)pb17r(15)----|-13--------------------------------13b15-(13)pb15r(13)-|
   H.         S     +S       +E        H.                                S     +S       +E


  Eb                                             D
                       ~~~~                                          ~~~
       |--3--|                                       |--3--|
   E   S  S  S  E  E   Q.                   E     E  S  S  S  E  E   H
|----------------------------------------------|--------------------------|
|-18--15h18p15---------------------------------|--------------------------|
|--------------17-15-/17-------------------15--|-17-15h17p15--------------|
|----------------------------------------------|-------------17-15-/17----|
|----------------------------------------------|--------------------------|
|----------------------------------------------|--------------------------|
|
|  H.                       S     +S       +E     W
|----------------------------------------------|--------------------------|
|----------------------------------------------|--------------------------|
|----------------------------------------------|--------------------------|
|----------------------------------------------|--------------------------|
|-10-----------------------10b12-(10)pb12r(10)-|--9-----------------------|
|-11-----------------------11b13-(11)pb13r(11)-|-10-----------------------|
   H.                       S     +S       +E     W


  Gm
   |--3---|  |--3--|  |--3--|  |--------3--------|   |--3---|
   E   E  E  E  E  E  E  E  E  S     S           S   S   S  S
|-----------15-18-20----------15----18----------20------------|
|-15--18-20----------15-18-20-----------------------15--18-20-|
|-------------------------------------------------------------|
|-------------------------------------------------------------|
|-------------------------------------------------------------|
|-------------------------------------------------------------|
|
|  H.                          S        +S          +E
|-------------------------------------------------------------|
|-------------------------------------------------------------|
|-------------------------------------------------------------|
|-------------------------------------------------------------|
|-13--------------------------13b15----(13)pb15r===(13)-------|
|-15--------------------------15b17----(15)pb17r===(15)-------|
   H.                          S        +S          +E


  F
   |--3---|  |--3--|  |--3--|  |--3--|  |--3--|  |--3--|  |--------3--------|   |--3---|
   S   S  S  S  S  S  S  S  S  S  S  S  S  S  S  S  S  S  S     S           S   S   S  S
|-15--18-20----------15-18-20----------15-18-20----------15----18----------20-------------|
|-----------15-18-20----------15-18-20----------15-18-20-----------------------15--18-20--|
|-----------------------------------------------------------------------------------------|
|-----------------------------------------------------------------------------------------|
|-----------------------------------------------------------------------------------------|
|-----------------------------------------------------------------------------------------|
|
|  H.                                                     S        +S          +E
|-----------------------------------------------------------------------------------------|
|-----------------------------------------------------------------------------------------|
|-----------------------------------------------------------------------------------------|
|-----------------------------------------------------------------------------------------|
|-12-----------------------------------------------------12b13----(12)pb13r===(12)--------|
|-13-----------------------------------------------------13b15----(13)pb15r===(13)--------|
   H.                                                     S        +S          +E


  Eb
   |--3---|  |--3--|  |--3--|  |--3--|  |--3--|  |--3--|  |--------3--------|   |--3---|
   S   S  S  S  S  S  S  S  S  S  S  S  S  S  S  S  S  S  S     S           S   S   S  S
|-15--18-20----------15-18-20----------15-18-20----------20----20----------20--20--20-20-|
|-----------15-18-20----------15-18-20----------15-18-20---------------------------------|
|----------------------------------------------------------------------------------------|
|----------------------------------------------------------------------------------------|
|----------------------------------------------------------------------------------------|
|----------------------------------------------------------------------------------------|
|
|  H.                                                     S        +S          +E
|----------------------------------------------------------------------------------------|
|----------------------------------------------------------------------------------------|
|----------------------------------------------------------------------------------------|
|----------------------------------------------------------------------------------------|
|-10-----------------------------------------------------10b12----(10)pb12r===(10)-------|
|-11-----------------------------------------------------11b13----(11)pb13r===(11)-------|
   H.                                                     S        +S          +E


  D
  Gtr V      Gtr I      Gtr IV
                         ~~~~~
   E..   +T   E..   +T   H
|-20b22r(20)-20b22r(20)-20b22----|
|--------------------------------|
|--------------------------------|
|--------------------------------|
|--------------------------------|
|--------------------------------|
|
|  q          H.
|--------------------------------|
|--------------------------------|
|--------------------------------|
|--------------------------------|
|--9-----------------------------|
|-10-----------------------------|
   q          H.


   Chorus/Outro
    N.C.
    Gtrs I, II
    S S S S S S S S S S S S S S S S   S S S S S S S S S S S S S S S S   4x
||----------------------------------|-----------------------------------||
||o---------------------------------|----------------------------------o||
||----------------------------------|-----------------------------------||
||----------------------------------|-----------------------------------||
||o-------------------------3-3-3-3-|-----------------6-6-6-6-6-6-6-6--o||
||--0-0-0-0-0-0-0-0-2-2-2-2---------|-5-5-5-5-5-5-5-5-------------------||


    Gtr IV
     S S S S S S S S S S S S S S S S   S S S S S S S S S S S S S S S S   3x
||--/7p0-7p0-7p0-7p0-7p0-7p0-7p0-7p0-|-5p0-5p0-5p0-5p0-3p0-3p0-2p0-2p0---||
||o----------------------------------|----------------------------------o||
||-----------------------------------|-----------------------------------||
||-----------------------------------|-----------------------------------||
||o----------------------------------|----------------------------------o||
||-----------------------------------|-----------------------------------||
|
|   Gtrs I, II
|    S S S S S S S S S S S S S S S S   S S S S S S S S S S S S S S S S   3x
||-----------------------------------|-----------------------------------||
||o----------------------------------|----------------------------------o||
||-----------------------------------|-----------------------------------||
||-----------------------------------|-----------------------------------||
||o--------------------------3-3-3-3-|-----------------6-6-6-6-6-6-6-6--o||
||---0-0-0-0-0-0-0-0-2-2-2-2---------|-5-5-5-5-5-5-5-5-------------------||


   S S S S S S S S S S S S S S S S   S S S S S S S S H
|-/7p0-7p0-7p0-7p0-7p0-7p0-7p0-7p0-|-5p0-5p0-5p0-5p0-----------------*|
|----------------------------------|---------------------------------*|
|----------------------------------|---------------------------------*|
|----------------------------------|---------------------------------*|
|----------------------------------|---------------------------------*|
|----------------------------------|---------------------------------*|
|
|  S S S S S S S S S S S S S S S S   S S S S S S S S S S S S S S S S
|----------------------------------|---------------------------------*|
|----------------------------------|---------------------------------*|
|----------------------------------|---------------------------------*|
|----------------------------------|---------------------------------*|
|--------------------------3-3-3-3-|-----------------6-6-6-6-6-6-6-6-*|
|--0-0-0-0-0-0-0-0-2-2-2-2---------|-5-5-5-5-5-5-5-5-----------------*|



Duration Legend
---------------
W - whole; H - half; Q - quarter; E - 8th; S - 16th; T - 32nd; X - 64th; a - acciaccatura
+ - note tied to previous; . - note dotted; .. - note double dotted
Uncapitalized letters represent notes that are staccato (1/2 duration)
Irregular groupings are notated above the duration line
Duration letters will always appear directly above the note/fret number it represents the
duration for.  Duration letters with no fret number below them represent rests.  Multi-
bar rests are notated in the form Wxn, where n is the number of bars to rest for.  Low
melody durations appear below the staff

Tablature Legend
----------------
 h   - hammer-on
 p   - pull-off
 b   - bend
 pb  - pre-bend
 r   - bend release (if no number after the r, then release immediately)
 /\  - slide into or out of (from/to "nowhere")
 s   - legato slide
 S   - shift slide
 - natural harmonic
[n]  - artificial harmonic
n(n) - tapped harmonic
 ~   - vibrato
 tr  - trill
 T   - tap
 TP  - trem. picking
 PM  - palm muting
\n/  - tremolo bar dip; n = amount to dip
 \n  - tremolo bar down
 n/  - tremolo bar up
/n\  - tremolo bar inverted dip
 =   - hold bend; also acts as connecting device for hammers/pulls
 <> - volume swell (louder/softer)
 x   - on rhythm slash represents muted slash
 o   - on rhythm slash represents single note slash

Misc Legend
-----------
 |  - bar
||  - double bar
||o - repeat start
o|| - repeat end
*|  - double bar (ending)
 :  - bar (freetime)
 $  - Segno
 &  - Coda
Tempo markers -  = BPM(8/16=s8/s16), where s8 = swing 8ths, s16 = swing 16ths

Tap to rate this tab
# A B C D E F G H I J K L M N O P Q R S T U V W X Y Z