Song name
# A B C D E F G H I J K L M N O P Q R S T U V W X Y Z

Arch Enemy - Taking Back My Soul tab

#----------------------------------PLEASE NOTE---------------------------------#
#This file is the author's own work and represents their interpretation of the #
#song. You may only use this file for private study, scholarship, or research. #
#------------------------------------------------------------------------------#

TAKING BACK MY SOUL
As recorded by Arch Enemy
(From the 2005 Album DOOMSDAY MACHINE)

Transcribed by SoggieMufin


Words by Angela Gossow, Michael Amott. Music by Michael Amott, Daniel Erlandsson, 
Amott.

Gtr I (C F Bb Eb G C) - 'Untitled'
Gtr II (C F Bb Eb G C) - 'Untitled'
Gtr III (C F Bb Eb G C) - 'Untitled'
Gtr IV (C F Bb Eb G C) - 'Untitled'
Gtr V (C F Bb Eb G C) - 'Untitled'

 Intro
  Q=140
  N.C.
 4/4
  Gtr IV
  PM----------------------------|
  S S S S S S S S S S S S S S S S   E E H.
|---------------------------------|-----------|
|---------------------------------|-----------|
|-------7-7-7-------7-7-7---------|-----------|
|-------------8-7-6---------------|-----------|
|-9-8-7-------------------9-8-7-7-|-8---------|
|---------------------------------|-----------|
|
| Gtr I
| S S S S S S S S S S S S S S S S   E E H.
|---------------------------------|-----------|
|---------------------------------|-----------|
|---------------------------------|-----------|
|---------------------------------|-----------|
|-------5-5-5-------5-5-5---------|-----------|
|-2-1-0-------6-5-4-------2-1-0-0-|-1---------|
|
| Gtr II
| S S S S S S S S S S S S S S S S   E E H.
|---------------------------------|-----------|
|---------------------------------|-----------|
|---------------------------------|-----------|
|---------------------------------|-----------|
|-------5-5-5-------5-5-5---------|-----------|
|-2-1-0-------6-5-4-------2-1-0-0-|-1---------|


  PM----------------------------|
  S S S S S S S S S S S S S S S S
|---------------------------------|
|---------------------------------|
|-------7-7-7-------7-7-7---------|
|-------------8-7-6---------------|
|-9-8-7-------------------9-8-7-7-|
|---------------------------------|
|
| S S S S S S S S S S S S S S S S
|---------------------------------|
|---------------------------------|
|---------------------------------|
|---------------------------------|
|-------5-5-5-------5-5-5---------|
|-2-1-0-------6-5-4-------2-1-0-0-|
|
| S S S S S S S S S S S S S S S S
|---------------------------------|
|---------------------------------|
|---------------------------------|
|---------------------------------|
|-------5-5-5-------5-5-5---------|
|-2-1-0-------6-5-4-------2-1-0-0-|


  E      E       H.
|---------------------------------------------------------------|
|---------------------------------------------------------------|
|---------------------------------------------------------------|
|---------------------------------------------------------------|
|-8-------------------------------------------------------------|
|---------------------------------------------------------------|
|
| S  S   S   S   S   S   S   S   S   S   S   S   S   S   S   S
|---------------------------------------------------------------|
|---------------------------------------------------------------|
|---------------------------------------------------------------|
|---------------------------------------------------------------|
|---------------------------------------------------------------|
|-1-<3>-<3>-<3>-<3>-<3>-<3>-<3>-<3>-<3>-<3>-<3>-<3>-<3>-<3>-<3>-|
|
| e      E       H.
|---------------------------------------------------------------|
|---------------------------------------------------------------|
|---------------------------------------------------------------|
|---------------------------------------------------------------|
|---------------------------------------------------------------|
|-1-------------------------------------------------------------|


  PM----------------------------|
  S S S S S S S S S S S S S S S S
|---------------------------------|
|---------------------------------|
|-------7-7-7-------7-7-7---------|
|-------------8-7-6---------------|
|-9-8-7-------------------9-8-7-7-|
|---------------------------------|
|
| S S S S S S S S S S S S S S S S
|---------------------------------|
|---------------------------------|
|---------------------------------|
|---------------------------------|
|-------5-5-5-------5-5-5---------|
|-2-1-0-------6-5-4-------2-1-0-0-|
|
| S S S S S S S S S S S S S S S S
|---------------------------------|
|---------------------------------|
|---------------------------------|
|---------------------------------|
|-------5-5-5-------5-5-5---------|
|-2-1-0-------6-5-4-------2-1-0-0-|


  E      E       H.
|---------------------------------------------------------------|
|---------------------------------------------------------------|
|---------------------------------------------------------------|
|---------------------------------------------------------------|
|-8-------------------------------------------------------------|
|---------------------------------------------------------------|
|
| e      E       H.
|---------------------------------------------------------------|
|---------------------------------------------------------------|
|---------------------------------------------------------------|
|---------------------------------------------------------------|
|---------------------------------------------------------------|
|-1-------------------------------------------------------------|
|
| S  S   S   S   S   S   S   S   S   S   S   S   S   S   S   S
|---------------------------------------------------------------|
|---------------------------------------------------------------|
|---------------------------------------------------------------|
|---------------------------------------------------------------|
|---------------------------------------------------------------|
|-1-[2]-[2]-[2]-[2]-[2]-[2]-[2]-[2]-[2]-[2]-[2]-[2]-[2]-[2]-[2]-|


    Gtr IV
    PM--------------------------------------------------------------|
    S S S S S S S S S S S S S S S S   S S S S S S S S S S S S S S S S
||----------------------------------|-----------------------------------||
||o---------------------------------|----------------------------------o||
||--------7-7-7-------7-7-7---------|-------7-7-7-------7-7-7-----------||
||--------------8-7-6---------------|-------------8-7-6-----------------||
||o-9-8-7-------------------9-8-7-7-|-9-8-7-------------------9-8-7-7--o||
||----------------------------------|-----------------------------------||
|
|   Gtrs I, II
|   PM--------------------------------------------------------------|
|   S S S S S S S S S S S S S S S S   S S S S S S S S S S S S S S S S
||----------------------------------|-----------------------------------||
||o---------------------------------|----------------------------------o||
||----------------------------------|-----------------------------------||
||----------------------------------|-----------------------------------||
||o-------5-5-5-------5-5-5---------|-------5-5-5-------5-5-5----------o||
||--2-1-0-------6-5-4-------2-1-0-0-|-2-1-0-------6-5-4-------2-1-0-0---||


  Gtrs I, II
  S S S S E S S S S E Q    S S S S E S S S S E Q    +W
|------------------------|------------------------|--------|
|------------------------|------------------------|--------|
|------------------------|------------------------|--------|
|------------------------|---------------------3--|-(3)----|
|------------------------|---------------------1--|-(1)----|
|-3-2-0-2---3-2-0-2------|-3-2-0-2---3-2-0-2---1--|-(1)----|


                            (D5/A)                                    A#5
    S S S S +E  S S S S +E   S   S   S   S    S S S S +E  S S S S +E  Q
||------------------------------------------|-----------------------------||
||o-----------------------------------------|----------------------------o||
||--------------------------<3>-<3>-<3>-<3>-|-----------------------------||
||--------------------------<3>-<3>-<3>-<3>-|-------------------------3---||
||o-----------------------------------------|-------------------------1--o||
||--3-2-0-2-(2)-3-2-0-2-(2)-----------------|-3-2-0-2-(2)-3-2-0-2-(2)-----||


 1st Lead - M. Amott
  N.C.                                    (D5/A)
  Gtr III
   ~~~~~~~~~~~~~~~~~~~~~~~~~~~~~~~~~
   Q           +E   E       +H
|---------------------------------------------------------|
|-17b19r======(17)-17b19---(17)pb19-----------------------|
|---------------------------------------------------------|
|---------------------------------------------------------|
|---------------------------------------------------------|
|---------------------------------------------------------|
|
| Gtrs I, II
|  S    S S S  +E   S    S   S      S +E   S   S   S   S
|---------------------------------------------------------|
|---------------------------------------------------------|
|-----------------------------------------<3>-<3>-<3>-<3>-|
|-----------------------------------------<3>-<3>-<3>-<3>-|
|---------------------------------------------------------|
|--3----2-0-2--(2)--3----2---0------2-(2)-----------------|


                                          A#5
                                       ~~~~~~~~
   |---3---|
   S  S    S  S  S  S   S  S  S  S  S  E   +Q
|-14h15p==14----14-------------------------------|
|------------17----17--15-14-17-15-14------------|
|-------------------------------------15--(15)---|
|------------------------------------------------|
|------------------------------------------------|
|------------------------------------------------|
|
|  S    S     S  S +E      S  S  S  S +E    Q
|------------------------------------------------|
|------------------------------------------------|
|------------------------------------------------|
|-------------------------------------------3----|
|-------------------------------------------1----|
|--3----2-----0--2-(2)-----3--2--0--2-(2)--------|


                                                                  (D5/A)
   |--------6---------|  |--------6--------|  |--------6--------|  |-----------6------------|
   S  S    S  S  S    S  S   S  S  S  S    S  S  S    S  S   S  S  S   S      S  S   S   
  S
|------------14-17---19-----------14-17---19------------14--17-19---------------14--17-----19-|
|-14-17---19------------14--17-19------------14-17---19-----------14--17-----19---------------|
|---------------------------------------------------------------------------------------------|
|---------------------------------------------------------------------------------------------|
|---------------------------------------------------------------------------------------------|
|---------------------------------------------------------------------------------------------|
|
|  S    S     S    S    +E         S    S     S    S    +E         S      S      S      S
|---------------------------------------------------------------------------------------------|
|---------------------------------------------------------------------------------------------|
|-----------------------------------------------------------------<3>----<3>----<3>----<3>----|
|-----------------------------------------------------------------<3>----<3>----<3>----<3>----|
|---------------------------------------------------------------------------------------------|
|--3----2-----0----2----(2)--------3----2-----0----2----(2)-----------------------------------|


                                                                  A#5
                                                                   ~~~~~
   |--------6---------|  |--------6--------|  |--------6--------|
   S  S    S  S  S    S  S   S  S  S  S    S  S  S    S  S   S  S  Q
|------------14-17---19-----------14-17---19-19-17---14-----------19b21----|
|-14-17---19------------14--17-19-----------------------19--17-14----------|
|--------------------------------------------------------------------------|
|--------------------------------------------------------------------------|
|--------------------------------------------------------------------------|
|--------------------------------------------------------------------------|
|
|  S    S     S    S    +E         S    S     S    S    +E         Q
|--------------------------------------------------------------------------|
|--------------------------------------------------------------------------|
|--------------------------------------------------------------------------|
|------------------------------------------------------------------3-------|
|------------------------------------------------------------------1-------|
|--3----2-----0----2----(2)--------3----2-----0----2----(2)----------------|


 Verse
  N.C.                                                    A#5
                      >
   ~~~~~~~~~~~~~~~~~~~~~~~~~~
   H                 +H               W
|-19b21-------------(19)pb21--------|------------------------|
|-----------------------------------|------------------------|
|-----------------------------------|------------------------|
|-----------------------------------|------------------------|
|-----------------------------------|------------------------|
|-----------------------------------|------------------------|
|
|  S    S S S E S S   S      S E Q    S S S S E S S S S E Q
|-----------------------------------|------------------------|
|-----------------------------------|------------------------|
|-----------------------------------|------------------------|
|-----------------------------------|---------------------3--|
|-----------------------------------|---------------------1--|
|--3----2-0-2---3-2---0------2------|-3-2-0-2---3-2-0-2------|


  $
  N.C.
  Gtrs I, II
  S S S S E S S S S E Q    S S S S E S S S S E E E
|------------------------|-------------------------|
|------------------------|-------------------------|
|------------------------|---------------------3s6-|
|------------------------|-------------------------|
|------------------------|---------------------1s4-|
|-3-2-0-2---3-2-0-2------|-3-2-0-2---3-2-0-2-------|


                                               PM|
                                                   |-3-|
  S S S S E S S S S E Q    S S S S E S S S S E S S S S S
|------------------------|-------------------------------|
|------------------------|-------------------------------|
|------------------------|-------------------------------|
|------------------------|-------------------------4h5p4-|
|------------------------|---------------------4-7-------|
|-3-2-0-2---3-2-0-2------|-3-2-0-2---3-2-0-2-------------|


  S S S S E S S S S E Q    S S S S E S S S S E Q
|------------------------|------------------------|
|------------------------|------------------------|
|------------------------|------------------------|
|------------------------|------------------------|
|------------------------|------------------------|
|-3-2-0-2---3-2-0-2------|-3-2-0-2---3-2-0-2------|


  N.C.
  PM---------------------------------------------------------------|
  S S S S S S S S S S S S S S S S    S S S S S S S S S S S S S S S S
|---------------------------------||----------------------------------|
|---------------------------------||----------------------------------|
|-------------------------2-2-2-2-||---------2-2-2-2-4-4-4-4-5-5-5-5--|
|---------3-3-3-3-5-5-5-5---------||----------------------------------|
|---------------------------------||-0-0-0-0--------------------------|
|-1-1-1-1-------------------------||----------------------------------|


              Chorus
               Am
  Gtr IV
  W            Q        E    E    +Q         E   E
|-----------||---------------------------------------|
|-----------||---------13---12---(12)-------13-------|
|-----------||-----------------------------------9---|
|-----------||---------------------------------------|
|-----------||---------------------------------------|
|-----------||---------------------------------------|
|
| Gtr III      Gtr III
| W            Q        E    E    +Q         E   E
|-----------||---------------------------------------|
|-----------||---------------------------------------|
|-----------||---------------------------------------|
|-----------||---------10----9----(9)-------10-------|
|-----------||-----------------------------------7---|
|-----------||---------------------------------------|
|
| Gtrs I, II
| H    H       S S S S  S S  S S   S  S S S  S S S S
|-----------||---------------------------------------|
|-----------||---------------------------------------|
|-----------||---------------------------------------|
|-3---------||-7-7-7-7--7-7--7-7---7--7-7-7--7-7-7-7-|
|-1----3----||---------------------------------------|
|------1----||-5-5-5-5--5-5--5-5---5--5-5-5--5-5-5-5-|


  +Q         E    E    +Q         E    E
|--------------------------------------------|
|-----------13---12---(12)-------13----------|
|-(9)---------------------------------10-----|
|--------------------------------------------|
|--------------------------------------------|
|--------------------------------------------|
|
| +Q         E    E    +Q         E    E
|--------------------------------------------|
|--------------------------------------------|
|--------------------------------------------|
|-----------10----9----(9)-------10----------|
|-(7)----------------------------------8-----|
|--------------------------------------------|
|
|  S  S S S  S S  S S   S  S S S  S S  S S
|--------------------------------------------|
|--------------------------------------------|
|--------------------------------------------|
|--7--7-7-7--7-7--7-7---7--7-7-7--7-7--7-7---|
|--------------------------------------------|
|--5--5-5-5--5-5--5-5---5--5-5-5--5-5--5-5---|


  Dm
   +Q         E    E    +Q         E   E
|------------------------------------------|
|------------13---12---(12)-------10---9---|
|-(10)-------------------------------------|
|------------------------------------------|
|------------------------------------------|
|------------------------------------------|
|
|  +Q         E    E    +Q         E   E
|------------------------------------------|
|------------------------------------------|
|------------------------------------------|
|------------10----9----(9)--------7---6---|
|--(8)-------------------------------------|
|------------------------------------------|
|
|   S  S S S  S S  S S   S  S S S  S S S S
|------------------------------------------|
|------------------------------------------|
|---7--7-7-7--7-7--7-7---7--7-7-7--7-7-7-7-|
|------------------------------------------|
|---5--5-5-5--5-5--5-5---5--5-5-5--5-5-5-5-|
|------------------------------------------|


  E
  +Q         E    E    +Q        E    E
|-----------------------------------------|
|-(9)-------10---12---(12)-------9---10---|
|-----------------------------------------|
|-----------------------------------------|
|-----------------------------------------|
|-----------------------------------------|
|
| +Q         E    E    +Q        E    E
|-----------------------------------------|
|-----------------------------------------|
|-----------------------------------------|
|-(6)--------7----9----(9)-------6----7---|
|-----------------------------------------|
|-----------------------------------------|
|
|  S  S S S  S S  S S   S  S S S S S  S S
|-----------------------------------------|
|-----------------------------------------|
|--9--9-9-9--9-9--9-9---9--9-9-9-9-9--9-9-|
|-----------------------------------------|
|--7--7-7-7--7-7--7-7---7--7-7-7-7-7--7-7-|
|-----------------------------------------|


  F
   +Q             Q             Q             Q
|----------------12------------10------------12--------|
|-(10)----------(13)----------(12)----------(13)-------|
|------------------------------------------------------|
|------------------------------------------------------|
|------------------------------------------------------|
|------------------------------------------------------|
|
|   Q             Q             Q             Q
|------------------------------------------------------|
|------------------------------------------------------|
|------------------------------------------------------|
|---7------------10-------------9------------10--------|
|------------------------------------------------------|
|------------------------------------------------------|
|
|   S   S  S  S   S   S  S  S   S   S  S  S   S  S S S
|------------------------------------------------------|
|------------------------------------------------------|
|--10--10-10-10--10--10-10-10--10--10-10-10---9--9-9-9-|
|------------------------------------------------------|
|---8---8--8--8---8---8--8--8---8---8--8--8---7--7-7-7-|
|------------------------------------------------------|


  Dm
    W
|------------------------------------|
|--13--------------------------------|
|-(10)-------------------------------|
|------------------------------------|
|------------------------------------|
|------------------------------------|
|
|   W
|------------------------------------|
|------------------------------------|
|------------------------------------|
|------------------------------------|
|---8--------------------------------|
|------------------------------------|
|
|   S  S S S S S S S S S S S S S S S
|------------------------------------|
|------------------------------------|
|---7--7-7-7-7-7-7-7-7-7-7-7-7-7-7-7-|
|------------------------------------|
|---5--5-5-5-5-5-5-5-5-5-5-5-5-5-5-5-|
|------------------------------------|


  Esus4
   S   S  S  S  S  S  S   S  S  S  S  S  S  S  S  S
|---------------------------------------------------|
|-10--10-10-10-10-10-10--10-10-10-10-10-10-10-10-10-|
|---------------------------------------------------|
|--7---7--7--7--7--7--7---7--7--7--7--7--7--7--7--7-|
|---------------------------------------------------|
|---------------------------------------------------|
|
|  Q.                 Q.                 Q
|---------------------------------------------------|
|---------------------------------------------------|
|---------------------------------------------------|
|--7------------------9-----------------10----------|
|---------------------------------------------------|
|---------------------------------------------------|
|
|  S   S  S  S  S  S  S   S  S  S  S  S  S  S  S  S
|---------------------------------------------------|
|---------------------------------------------------|
|--9---9--9--9--9--9--9---9--9--9--9--9--9--9--9--9-|
|---------------------------------------------------|
|--7---7--7--7--7--7--7---7--7--7--7--7--7--7--7--7-|
|---------------------------------------------------|


                             To Coda
  E
     W
|-------------------------------------|
|----9--------------------------------|
|-------------------------------------|
|----6--------------------------------|
|-------------------------------------|
|-------------------------------------|
|
|    W
|-/(12)-------------------------------|
|-------------------------------------|
|---/9--------------------------------|
|-------------------------------------|
|-------------------------------------|
|-------------------------------------|
|
|    S  S S S S S S S S S S S S S S S
|-------------------------------------|
|-------------------------------------|
|----9--9-9-9-9-9-9-9-9-9-9-9-9-9-9-9-|
|-------------------------------------|
|----7--7-7-7-7-7-7-7-7-7-7-7-7-7-7-7-|
|-------------------------------------|


  N.C.                                          A#5
  Gtr III
  W                        H.                   Q
|------------------------|----------------------9/--|
|------------------------|--------------------------|
|------------------------|--------------------------|
|------------------------|--------------------------|
|------------------------|--------------------------|
|------------------------|--------------------------|
|
| Gtrs I, II
| S S S S E S S S S E Q    S  S S S E S S S S E Q
|------------------------|--------------------------|
|------------------------|--------------------------|
|------------------------|--------------------------|
|------------------------|----------------------3---|
|------------------------|----------------------1---|
|-3-2-0-2---3-2-0-2------|-3--2-0-2---3-2-0-2-------|


 2nd Lead - Gus. G
                            (D5/A)
    TP
    W
|-/21---------------------------------------|
|-------------------------------------------|
|-------------------------------------------|
|-------------------------------------------|
|-------------------------------------------|
|-------------------------------------------|
|
|   S S S S +E  S S S S +E   S   S   S   S
|-------------------------------------------|
|-------------------------------------------|
|---------------------------<3>-<3>-<3>-<3>-|
|---------------------------<3>-<3>-<3>-<3>-|
|-------------------------------------------|
|---3-2-0-2-(2)-3-2-0-2-(2)-----------------|


                                                                  A#5
   |--------6---------|  |--------6--------|  |--------5--------|  |------6-------|
   S  S    S  S  S    S  S   S  S  S  S    S  S  S    S      S  S  S  S  S  S  S  S
|-21p18--------------18-21p=18------------18-21-20---19-----18-19-21p18----------18-|
|---------20----20-------------20----20---------------------------------20----20----|
|------------18-------------------18---------------------------------------18-------|
|-----------------------------------------------------------------------------------|
|-----------------------------------------------------------------------------------|
|-----------------------------------------------------------------------------------|
|
|  S    S     S    S    +E         S    S     S    S    +E         Q
|-----------------------------------------------------------------------------------|
|-----------------------------------------------------------------------------------|
|-----------------------------------------------------------------------------------|
|------------------------------------------------------------------3----------------|
|------------------------------------------------------------------1----------------|
|--3----2-----0----2----(2)--------3----2-----0----2----(2)-------------------------|


                                                                  (D5/A)
   |--------6---------|  |--------6--------|  |--------6--------|  |-----------6------------|
   S  S    S  S  S    S  S   S  S  S  S    S  S  S    S  S   S  S  S   S      S  S   S   
  S
|-18p15--------------15-18p=15------------15-18-17---16-15--16-17-18p=15-------------------15-|
|---------17----17-------------17----17--------------------------------------17-----17--------|
|------------15-------------------15--------------------------------------------15------------|
|---------------------------------------------------------------------------------------------|
|---------------------------------------------------------------------------------------------|
|---------------------------------------------------------------------------------------------|
|
|  S    S     S    S    +E         S    S     S    S    +E         S      S      S      S
|---------------------------------------------------------------------------------------------|
|---------------------------------------------------------------------------------------------|
|-----------------------------------------------------------------<3>----<3>----<3>----<3>----|
|-----------------------------------------------------------------<3>----<3>----<3>----<3>----|
|---------------------------------------------------------------------------------------------|
|--3----2-----0----2----(2)--------3----2-----0----2----(2)-----------------------------------|


                                                                  A#5
   |--------6---------|  |--------6--------|  |--------6--------|  |------6-------|
   S  S    S  S  S    S  S   S  S  S  S    S  S  S    S  S   S  S  S  S  S  S  S  S
|-15p12--------------12-15p=12------------12-15-14---13-12--13-14-15p12----------12----|
|---------14----14-------------14----14---------------------------------14----14-------|
|------------12-------------------12---------------------------------------12----------|
|--------------------------------------------------------------------------------------|
|--------------------------------------------------------------------------------------|
|--------------------------------------------------------------------------------------|
|
|  S    S     S    S    +E         S    S     S    S    +E         Q
|--------------------------------------------------------------------------------------|
|--------------------------------------------------------------------------------------|
|--------------------------------------------------------------------------------------|
|------------------------------------------------------------------3-------------------|
|------------------------------------------------------------------1-------------------|
|--3----2-----0----2----(2)--------3----2-----0----2----(2)----------------------------|


                              (D5/A)
   ~~~~~
                               |-----------5------------|
   H.                          S   S      S      S      S
|-----------------------------14--15-----14-----13-----14-|
|-17b19---------------------------------------------------|
|---------------------------------------------------------|
|---------------------------------------------------------|
|---------------------------------------------------------|
|---------------------------------------------------------|
|
|  S    S S S +E  S S S S +E   S      S      S      S
|---------------------------------------------------------|
|---------------------------------------------------------|
|-----------------------------<3>----<3>----<3>----<3>----|
|-----------------------------<3>----<3>----<3>----<3>----|
|---------------------------------------------------------|
|--3----2-0-2-(2)-3-2-0-2-(2)-----------------------------|


                                                      A#5
                                                   ~~~~
   |--------5--------|  |-------5--------|
   S  S    S    S    S  S   S  S    S    S  S  S  +Q    E
|-----------------------------------------------------------|
|-17-15---14---17---15-14--15-14----------------------------|
|----------------------------------16---15-16-15-(15)---3s==|
|-----------------------------------------------------------|
|-----------------------------------------------------------|
|-----------------------------------------------------------|
|
|  S    S    S    S    +E        S    S     S  S  +E  Q
|-----------------------------------------------------------|
|-----------------------------------------------------------|
|-----------------------------------------------------------|
|-----------------------------------------------------3-----|
|-----------------------------------------------------1-----|
|--3----2----0----2----(2)-------3----2-----0--2--(2)-------|


                                       (D5/A)
  S  S  S  S  S   S  S  S  S  S  S   S  S   S   S   S
|------------12s=14s12---------------------------------|
|------11-14-----------14-13-14-13---------------------|
|-9-11------------------------------14-11--14--11------|
|--------------------------------------------------14--|
|------------------------------------------------------|
|------------------------------------------------------|
|
| S  S  S  S +E      S  S  S  S +E      S   S   S   S
|------------------------------------------------------|
|------------------------------------------------------|
|--------------------------------------<3>-<3>-<3>-<3>-|
|--------------------------------------<3>-<3>-<3>-<3>-|
|------------------------------------------------------|
|-3--2--0--2-(2)-----3--2--0--2-(2)--------------------|


                                          A#5
                                            ~~~
                            |-3--|  |-3-|
   S  S  S  S  S   S  S  S  E    S  E   S   Q
|----------------------------------------------|
|----------------------------------------------|
|----------15--------16---------18-----18-/21--|
|----------------------------------------------|
|-16-14-13----13--13----13-16------16----------|
|----------------------------------------------|
|
|  S  S  S  S +E      S  S  S S    +E       Q
|----------------------------------------------|
|----------------------------------------------|
|----------------------------------------------|
|-------------------------------------------3--|
|-------------------------------------------1--|
|--3--2--0--2-(2)-----3--2--0-2----(2)---------|


 2nd Verse
                                        D.S. al Coda
  N.C.                                            A#5
    ~~~~
   +H              H          W
|---------------------------|------------------------|
|---------------------------|------------------------|
|-(21)----------------------|------------------------|
|---------------------------|------------------------|
|---------------------------|------------------------|
|---------------------------|------------------------|
|
| Gtrs I, II
|   S  S S S E S S S S E Q    S S S S E S S S S E Q
|---------------------------|------------------------|
|---------------------------|------------------------|
|---------------------------|------------------------|
|---------------------------|---------------------3--|
|---------------------------|---------------------1--|
|---3--2-0-2---3-2-0-2------|-3-2-0-2---3-2-0-2------|


 Chorus Variation
  &
  Am
  Gtr IV
  Q            E  E      Q         E     E
|------------------------------------------||
|-------------13-12-----12--------13-------||
|----------------------------------------9-||
|------------------------------------------||
|------------------------------------------||
|------------------------------------------||
|
| Gtr III
| Q            E  E     +Q         E     E
|------------------------------------------||
|------------------------------------------||
|------------------------------------------||
|-------------10--9-----(9)-------10-------||
|----------------------------------------7-||
|------------------------------------------||
|
| Gtrs I, II
| |----6----|     |-3-|  |-3--|    |-3-|
| S S S S S S  e  S S S  S  S S e  S S S e
|------------------------------------------||
|------------------------------------------||
|------------------------------------------||
|------------------------------------------||
|------------------------------------------||
|-5-5-5-5-5-5--5--5-5-5--5--5-5-5--5-5-5-5-||


  +Q             E  E      +Q         E      E
|-----------------------------------------------|
|---------------13-12-----(12)-------13---------|
|-(9)---------------------------------------10--|
|-----------------------------------------------|
|-----------------------------------------------|
|-----------------------------------------------|
|
| +Q             E  E      +Q         E      E
|-----------------------------------------------|
|-----------------------------------------------|
|-----------------------------------------------|
|---------------10--9------(9)-------10---------|
|-(7)----------------------------------------8--|
|-----------------------------------------------|
|
|  |----6-----|     |-3-|   |-3--|    |-3-|
|  S  S S S S S  e  S S S   S  S S e  S S S  e
|-----------------------------------------------|
|-----------------------------------------------|
|-----------------------------------------------|
|-----------------------------------------------|
|-----------------------------------------------|
|--5--5-5-5-5-5--5--5-5-5---5--5-5-5--5-5-5--5--|


  Dm
   +Q             E  E      +Q         E     E
|----------------------------------------------|
|----------------13-12-----(12)-------10-----9-|
|-(10)-----------------------------------------|
|----------------------------------------------|
|----------------------------------------------|
|----------------------------------------------|
|
|  +Q             E  E      +Q         E     E
|----------------------------------------------|
|----------------------------------------------|
|----------------------------------------------|
|----------------10--9------(9)--------7-----6-|
|--(8)-----------------------------------------|
|----------------------------------------------|
|
|   |----6-----|     |-3-|   |-3--|    |-3-|
|   S  S S S S S  e  S S S   S  S S e  S S S e
|----------------------------------------------|
|----------------------------------------------|
|----------------------------------------------|
|----------------------------------------------|
|---5--5-5-5-5-5--5--5-5-5---5--5-5-5--5-5-5-5-|
|----------------------------------------------|


  E
  +Q             E  E      +Q        E      E
|---------------------------------------------|
|-(9)-----------10-12-----(12)-------9-----10-|
|---------------------------------------------|
|---------------------------------------------|
|---------------------------------------------|
|---------------------------------------------|
|
| +Q             E  E      +Q        E      E
|---------------------------------------------|
|---------------------------------------------|
|---------------------------------------------|
|-(6)------------7--9------(9)-------6------7-|
|---------------------------------------------|
|---------------------------------------------|
|
|  |----6-----|     |-3-|   |-3--|   |-3-|
|  S  S S S S S  e  S S S   S  S S e S S S  e
|---------------------------------------------|
|---------------------------------------------|
|---------------------------------------------|
|---------------------------------------------|
|--7--7-7-7-7-7--7--7-7-7---7--7-7-7-7-7-7--7-|
|---------------------------------------------|


  F
   +Q              Q          Q          Q
|-----------------12---------10---------12--------|
|-(10)-----------(13)-------(12)-------(13)-------|
|-------------------------------------------------|
|-------------------------------------------------|
|-------------------------------------------------|
|-------------------------------------------------|
|
|  +Q              Q          Q          Q
|-------------------------------------------------|
|-------------------------------------------------|
|-------------------------------------------------|
|--(7)------------10----------9---------10--------|
|-------------------------------------------------|
|-------------------------------------------------|
|
|   |----6-----|      |-3-|   |-3--|     |-3--|
|   S  S S S S S   e  S S S   S  S S e   S  S S e
|-------------------------------------------------|
|-------------------------------------------------|
|-------------------------------------------------|
|-------------------------------------------------|
|---8--8-8-8-8-8---8--8-8-8---8--8-8-8---7--7-7-7-|
|-------------------------------------------------|


  Dm
    W
|----------------------------------------|
|--13------------------------------------|
|-(10)-----------------------------------|
|----------------------------------------|
|----------------------------------------|
|----------------------------------------|
|
|   W
|----------------------------------------|
|----------------------------------------|
|----------------------------------------|
|----------------------------------------|
|---8------------------------------------|
|----------------------------------------|
|
|   |----6-----|   |-3-| |-3-|   |-3-|
|   S  S S S S S e S S S S S S e S S S e
|----------------------------------------|
|----------------------------------------|
|----------------------------------------|
|----------------------------------------|
|---5--5-5-5-5-5-5-5-5-5-5-5-5-5-5-5-5-5-|
|----------------------------------------|


  F                                       E
                             |---3----|
   S   S  S  S  S  S  S   S  Q  Q     Q      W
|---------------------------------------|----------|
|-10--10-10-10-10-10-10--10-10-10----10-|----9-----|
|---------------------------------------|----------|
|--7---7--7--7--7--7--7---7--7--7-----7-|----6-----|
|---------------------------------------|----------|
|---------------------------------------|----------|
|
|  Q.                 Q.           Q         W
|---------------------------------------|-/(12)----|
|---------------------------------------|----------|
|---------------------------------------|---/9-----|
|--7------------------9-----------10----|----------|
|---------------------------------------|----------|
|---------------------------------------|----------|
|
|                            |---3----|
|  E      E     E     E      Q  Q     Q      W
|---------------------------------------|----------|
|---------------------------------------|----------|
|---------------------------------------|----------|
|---------------------------------------|----9-----|
|--7------7-----7-----7------7--7-----7-|----7-----|
|---------------------------------------|----0-----|


               Q=175
                                       A5
                >
  +W           +W            W
|------------|------------|--------------|
|-(9)--------|-(9)--------|--------------|
|------------|------------|--------------|
|-(6)--------|-(6)--------|--------------|
|------------|------------|--------------|
|------------|------------|--------------|
|
|               >
| +W           +W            W
|------------|------------|--------------|
|------------|------------|--------------|
|-(9)--------|-(9)--------|--------------|
|------------|------------|--------------|
|------------|------------|--------------|
|------------|------------|--------------|
|
| +W           +W           +H..       E
|------------|------------|--------------|
|------------|------------|--------------|
|------------|------------|--------------|
|-(9)--------|-(9)--------|-(9)--------2-|
|-(7)--------|-(7)--------|-(7)--------0-|
|-(0)--------|-(0)--------|-(0)----------|


                 F5               G5               A5          G#5       A5
    Gtrs I, II
           PM--|            PM--|            PM--|
    +H     E E E E   +H     E E E E   +H     E E E E   +E  E E E +E  E E E
||-----------------|----------------|----------------|-----------------------||
||o----------------|----------------|----------------|----------------------o||
||---------------5-|-(5)----------7-|-(7)----------9-|-(9)-9---8-(8)-8-------||
||--(2)----------3-|-(3)----------5-|-(5)----------7-|-(7)-7---6-(6)-6---2---||
||o-(0)----0-2-3---|--------0-2-3---|--------0-2-3---|-------0---------0-0--o||
||-----------------|----------------|----------------|-----------------------||


                        F5                      G5
     PM---------------|         PM------------|
    +E  E S S S S E E E E   +E  E S S S S E E E E
||------------------------|-----------------------|
||o-----------------------|-----------------------|
||----------------------5-|-(5)-----------------7-|
||--(2)-----------------3-|-(3)-----------------5-|
||o-(0)-0-0-0-0-0-0-2-3---|-----0-0-0-0-0-0-2-3---|
||------------------------|-----------------------|


                      A5          G#5       A5
      PM------------|           PM        PM
  +E  E S S S S E E E E   +E  E E E +E  E E E
|-----------------------|------------------------||
|-----------------------|-----------------------o||
|-(7)-----------------9-|-(9)-9---8-(8)-8--------||
|-(5)-----------------7-|-(7)-7---6-(6)-6---2----||
|-----0-0-0-0-0-0-2-3---|-------0---------0-0---o||
|-----------------------|------------------------||


               F                 G                 Am              E/G#      A5
  Gtr I
         PM--|             PM--|             PM--|
  +H     E E E  E   +H     E E E  E   +H     E E E   E    +E   E E E +E  E E E
|-----------------|-----------------|------------------|-----------------------|
|-----------------|-----------------|------------------|-----------------------|
|-----------------|-----------------|------------------|-----------------------|
|-(2)----------/3-|-(3)----------/5-|-(5)-----------/7-|--(7)--7---6-(6)-6---2-|
|-(0)----0-2-3----|--------0-2-3----|--------0-2-3-----|---------0---------0-0-|
|-----------------|-----------------|------------------|-----------------------|
|
| Gtr II
|        PM--|             PM--|             PM--|
| +H     E E E  E   +H     E E E  E   +H     E E E   E    +E   E E E +E  E E E
|-----------------|-----------------|------------------|-----------------------|
|-----------------|-----------------|------------------|-----------------------|
|-----------------|-----------------|------------------|-----------------------|
|-(2)----------/7-|-(7)----------/9-|-(9)----------/10-|-(10)-10---9-(9)-9---2-|
|-(0)----0-2-3----|--------0-2-3----|--------0-2-3-----|---------0---------0-0-|
|-----------------|-----------------|------------------|-----------------------|


               F                 G
  Gtr III
   W                 W
|-----------------|-----------------|
|-----------------|-----------------|
|-----------------|-----------------|
|-----------------|-----------------|
|-----------------|-----------------|
|-----------------|-----------------|
|
| Gtr I
|        PM--|             PM--|
| +H     E E E  E   +H     E E E  E
|-----------------|-----------------|
|-----------------|-----------------|
|-----------------|-----------------|
|-(2)----------/3-|-(3)----------/5-|
|-(0)----0-2-3----|--------0-2-3----|
|-----------------|-----------------|
|
| Gtr II
|        PM--|             PM--|
| +H     E E E  E   +H     E E E  E
|-----------------|-----------------|
|-----------------|-----------------|
|-----------------|-----------------|
|-(2)----------/7-|-(7)----------/9-|
|-(0)----0-2-3----|--------0-2-3----|
|-----------------|-----------------|


               Am               E/G#      A5
   W                   H..                 E
|------------------|----------------------12----|
|------------------|----------------------15b17-|
|------------------|----------------------------|
|------------------|----------------------------|
|------------------|----------------------------|
|------------------|----------------------------|
|
|        PM--|
| +H     E E E   E    +E    E E E +E  E E  E
|------------------|----------------------------|
|------------------|----------------------------|
|------------------|----------------------------|
|-(5)-----------/7-|--(7)---7---6-(6)-6----2----|
|--------0-2-3-----|----------0---------0--0----|
|------------------|----------------------------|
|
|        PM--|
| +H     E E E   E    +E    E E E +E  E E  E
|------------------|----------------------------|
|------------------|----------------------------|
|------------------|----------------------------|
|-(9)----------/10-|-(10)--10---9-(9)-9----2----|
|--------0-2-3-----|----------0---------0--0----|
|------------------|----------------------------|


 3rd Lead - C. Amott
                           F5                                          G5
   +H..                     E       +Q.            E       +Q.          E
|-(12)---------------------15----|-(15)-----------13------(13)---------12----|
|-(15)pb17-----------------18b20-|-(18)pb20-------16b18---(16)pb18-----15b17-|
|--------------------------------|-------------------------------------------|
|--------------------------------|-------------------------------------------|
|--------------------------------|-------------------------------------------|
|--------------------------------|-------------------------------------------|
|
| Gtrs I, II
|          PM------------|                  PM-----------------------|
|  +E      E S S S S E E E  E       +E      E S S  S    S   E      E E  E
|--------------------------------|-------------------------------------------|
|--------------------------------|-------------------------------------------|
|---------------------------5----|--(5)---------------------------------7----|
|--(2)----------------------3----|--(3)---------------------------------5----|
|--(0)-----0-0-0-0-0-0-2-3-------|----------0-0-0--0----0---0------2-3-------|
|--------------------------------|-------------------------------------------|


                                      A5                   G#5       A5
   +Q.            E       +Q.          E       +W
|-(12)-----------10------(10)----------8----|--(8)---------------------|
|-(15)pb17-------13b15---(13)pb15-----11b13-|-(11)pb13-----------------|
|-------------------------------------------|--------------------------|
|-------------------------------------------|--------------------------|
|-------------------------------------------|--------------------------|
|-------------------------------------------|--------------------------|
|
|          PM-----------------------|                    PM        PM
|  +E      E S S  S    S   E      E E  E       +E      E E E +E  E E E
|-------------------------------------------|--------------------------|
|-------------------------------------------|--------------------------|
|--(7)---------------------------------9----|--(9)-----9---8-(8)-8-----|
|--(5)---------------------------------7----|--(7)-----7---6-(6)-6---2-|
|----------0-0-0--0----0---0------2-3-------|------------0---------0-0-|
|-------------------------------------------|--------------------------|


                                             F5
   |---3---|  |----3----|    |---3---|
   E  E    E  E    E    E    E  E    E  S  S  S  S
|--------------------------------------------------|
|------------12---13---15s==17------------13-15-17-|
|-10-12---14-------------------12---14-16----------|
|--------------------------------------------------|
|--------------------------------------------------|
|--------------------------------------------------|
|
|       PM-----------------------------|
|  E    E     S S    S    S  E    E     E     E
|--------------------------------------------------|
|--------------------------------------------------|
|---------------------------------------------5----|
|--2------------------------------------------3----|
|--0----0-----0-0----0----0--0----2-----3----------|
|--------------------------------------------------|


                                                        G5
   |-----------7:8------------|    |----------7:8----------|
   S   S    S  S    S    S    S    S  S    S  S    S  S    S
|-------------------------------------------------12-13---15-|
|-18---------------15---17---18---20-12---13-15--------------|
|-----14---16-17---------------------------------------------|
|------------------------------------------------------------|
|------------------------------------------------------------|
|------------------------------------------------------------|
|
|        PM-------------------------------------|
| +E     E       S    S    S    S  E    E       E       E
|------------------------------------------------------------|
|------------------------------------------------------------|
|-(5)---------------------------------------------------7----|
|-(3)---------------------------------------------------5----|
|--------0-------0----0----0----0--0----2-------3------------|
|------------------------------------------------------------|


                                                             A5
               |--------5--------|  |------5------|  |------5------|
   S  S  S  S  S  S    S    S    S  S  S  S    S  S  S  S  S    S  S
|-17----------13-15---17---20---19-17----17---19-17------------------|
|----13-15-17-------------------------20------------21-20-19---18-19-|
|--------------------------------------------------------------------|
|--------------------------------------------------------------------|
|--------------------------------------------------------------------|
|--------------------------------------------------------------------|
|
|        PM-----------------------------------------|
|  E     E     S    S    S    S     E       E        E       E
|--------------------------------------------------------------------|
|--------------------------------------------------------------------|
|--7---------------------------------------------------------9-------|
|--5---------------------------------------------------------7-------|
|--------0-----0----0----0----0-----0-------2--------3---------------|
|--------------------------------------------------------------------|


                              G#5                A5
   |----------9:6-----------|
   S   S  S  S  S  S  S  S  S  E     +H
|--------15-13-12----15-13-12----------------------|
|-20--21----------15----------15b17-(15)pb17-------|
|--------------------------------------------------|
|--------------------------------------------------|
|--------------------------------------------------|
|--------------------------------------------------|
|
| +E         E        E        E     +E      E E E
|--------------------------------------------------|
|--------------------------------------------------|
|-(9)--------9-----------------8-----(8)-----8-----|
|-(7)--------7-----------------6-----(6)-----6---2-|
|---------------------0------------------------0-0-|
|--------------------------------------------------|


                                            F5
   S  S  S  S  S  S  S  S  S  S  S  S  S  S  S  S
|-------------------------------------------------|
|-------------------------------------------------|
|-17-14-------17-14-------17-14----------14-17-14-|
|-------17-14-------17-14-------17-14-17----------|
|-------------------------------------------------|
|-------------------------------------------------|
|
|        PM---------------------------|
|  E     E     S  S  S  S  E     E     E     E
|-------------------------------------------------|
|-------------------------------------------------|
|--------------------------------------------5----|
|--2-----------------------------------------3----|
|--0-----0-----0--0--0--0--0-----2-----3----------|
|-------------------------------------------------|


                                                 G5
                      ~~~~~~~~~~~~~~~~~~~
   S   S  S  S  S  S  E         +Q          S  S  S  S
|------------------------------------------20-17--------|
|--------------------16b16.5---(16)b16.5---------20-17--|
|--------17-14------------------------------------------|
|-17--14-------17-14------------------------------------|
|-------------------------------------------------------|
|-------------------------------------------------------|
|
|         PM-------------------------------|
| +E      E     S  S  S      S   E       E  E     E
|-------------------------------------------------------|
|-------------------------------------------------------|
|-(5)---------------------------------------------7-----|
|-(3)---------------------------------------------5-----|
|---------0-----0--0--0------0---0-------2--3-----------|
|-------------------------------------------------------|


                                            A5
   S  S  S  S  S  S  S  S  S  S  S  S  S  S  S  S
|-20-17-------20-17----------17-20-17-------22-17-|
|-------20-17-------20-17-20----------20-17-------|
|-------------------------------------------------|
|-------------------------------------------------|
|-------------------------------------------------|
|-------------------------------------------------|
|
|        PM---------------------------|
|  E     E     S  S  S  S  E     E     E     E
|-------------------------------------------------|
|-------------------------------------------------|
|--7-----------------------------------------9----|
|--5-----------------------------------------7----|
|--------0-----0--0--0--0--0-----2-----3----------|
|-------------------------------------------------|


                     G#5                     A5
   S   S  S  S  S  S  S  S  Q       +Q
|-20--17-------22-17-20-17-15b18---(15)b18\----|
|--------20-17--------------xb18----(x)pb18\---|
|----------------------------------------------|
|----------------------------------------------|
|----------------------------------------------|
|----------------------------------------------|
|
| +E      E     E     E    +E    E   E       E
|----------------------------------------------|
|----------------------------------------------|
|-(9)-----9-----------8----(8)---8-------------|
|-(7)-----7-----------6----(6)---6-----------2-|
|---------------0--------------------0-------0-|
|----------------------------------------------|


                         F5                            G5
   TP    TP       TP   TP         TP     TP    TP  TP   TP
   Q     Q        Q    Q      E   Q      E    +E   Q    E
|--------------------------|---------------------------14-|
|-17----13-------15---17---|-----13-----15---(15)-17---16-|
|-17----14-------16---17---|-----14-----16---(16)-17------|
|--------------------------|------------------------------|
|--------------------------|------------------------------|
|--------------------------|------------------------------|
|
| Gtr I
|     PM--------------|           PM-----------------|
| +E  E  S S S S  E E  E E   +E   E S S  S S   E   E E  E
|--------------------------|------------------------------|
|--------------------------|------------------------------|
|------------------------5-|-(5)------------------------7-|
|-(2)--------------------3-|-(3)------------------------5-|
|-(0)-0--0-0-0-0--0-2--3---|------0-0-0--0-0---0---2-3----|
|--------------------------|------------------------------|
|
| Gtr II
|        PM-----------|           PM-----------------|
| +E  E  S S S S  E E  E E   +E   E S S  S S   E   E E  E
|--------------------------|------------------------------|
|--------------------------|------------------------------|
|------------------------5-|-(5)------------------------7-|
|-(2)--------------------3-|-(3)------------------------5-|
|-(0)-0--0-0-0-0--0-2--3---|------0-0-0--0-0---0---2-3----|
|--------------------------|------------------------------|


                         A5           G#5       Am
   TP    TP       TP      TP
   Q     Q        Q.      E    W
|-15-------------14------13-|---------------------|
|-17----17-------15------14-|-14------------------|
|-------17------------------|-14------------------|
|---------------------------|---------------------|
|---------------------------|---------------------|
|---------------------------|---------------------|
|
|     PM---------------|
| +E  E  S S S S  E  E E  E   +E  E E E +E  E E E
|---------------------------|---------------------|
|---------------------------|---------------------|
|-(7)---------------------9-|-(9)-9---8-(8)-8---5-|
|-(5)---------------------7-|-(7)-7---6-(6)-6---7-|
|-----0--0-0-0-0--0--2-3----|-------0---------0---|
|---------------------------|---------------------|
|
|     PM---------------|
| +E  E  S S S S  E  E E  E   +E  E E E +E  E E E
|---------------------------|---------------------|
|---------------------------|---------------------|
|-(7)---------------------9-|-(9)-9---8-(8)-8-----|
|-(5)---------------------7-|-(7)-7---6-(6)-6---2-|
|-----0--0-0-0-0--0--2-3----|-------0---------0-0-|
|---------------------------|---------------------|


                   E/G#                       G5
  Gtr I
      PM   PM    PM        PM|    PM
  +E  E E  E E E E E   +E  S S E  E E   +E  E E
|--------------------|--------------------------|
|--------------------|--------------------------|
|-(5)---7----7-5---5-|-(5)-----7----7b9-(7)-5-5-|
|-(7)-7-7--7-7-7-7-6-|-(6)-6-6-6--6-----------5-|
|--------------------|--------------------------|
|--------------------|--------------------------|
|
| Gtr II
| +Q    Q.     Q   E   +Q      Q.        Q    E
|--------------------|--------------------------|
|--------------------|--------------------------|
|--------------------|--------------------------|
|-(2)----------------|--------------------------|
|-(0)----------7---7-|-(7)---------------7----5-|
|--------------5---4-|-(4)---------------4----3-|


                  D/F#      (Dadd2add6/FAm
      PM  PM    PM|                   PM
  +E  E E E E E E E   +E  E E E +E  E E E
|-------------------|---------0-(0)--------|
|-------------------|-------0-------0------|
|-(5)---7---7-5-----|-----5-----------5-5--|
|-(5)-5-5-5-5-5-5-4-|-(4)---------------7--|
|-------------------|----------------------|
|-------------------|----------------------|
|
|     PM  PM  PM|         PM----------|
| +E  E E E E E E E   +E  E E E  E  E E E
|-------------------|----------------------|
|-------------------|----------------------|
|-------------------|----------------------|
|-------------------|----------------------|
|-(5)-5-5-5-5-5-5-5-|-(5)-5-5-5--5--5-5-7--|
|-(3)-3-3-3-3-3-3-2-|-(2)-2-2-2--2--2-2-5--|


                  E/G#                G5
  Gtr IV
   W                   W
|-------------------|-------------------|
|-------------------|-------------------|
|-------------------|-------------------|
|-------------------|-------------------|
|-------------------|-------------------|
|-------------------|-------------------|
|
| Gtr I
|     PM  PM    PM        PM  PM    PM
|  E  E E E E E E E   +E  E E E E E E E
|-------------------|-------------------|
|-------------------|-------------------|
|-(5)---7---7-5---5-|-(5)---7---7-5---5-|
|--7--7-7-7-7-7-7-6-|-(6)-6-6-6-6-6-6-5-|
|-------------------|-------------------|
|-------------------|-------------------|
|
| Gtr II
|     PM  PM  PM|         PM  PM  PM|
| +E  E E E E E E E   +E  E E E E E E E
|-------------------|-------------------|
|-------------------|-------------------|
|-------------------|-------------------|
|-------------------|-------------------|
|-(7)-7-7-7-7-7-7-7-|-(7)-7-7-7-7-7-7-5-|
|-(5)-5-5-5-5-5-5-4-|-(4)-4-4-4-4-4-4-3-|


                  D/F#      (Dadd2add6/FA5
   W                   H.             E  E
|-------------------|----------------------|
|-------------------|----------------------|
|-------------------|-------------------14-|
|-------------------|----------------------|
|-------------------|-------------------12-|
|-------------------|----------------------|
|
|     PM  PM    PM|                   PM
| +E  E E E E E E E   +E  E E E +E  E E  E
|-------------------|---------0-(0)--------|
|-------------------|-------0-------0------|
|-(5)---7---7-5-----|-----5-----------5--9-|
|-(5)-5-5-5-5-5-5-4-|-(4)----------------7-|
|-------------------|----------------------|
|-------------------|----------------------|
|
|     PM  PM  PM|         PM----------|
| +E  E E E E E E E   +E  E E E  E  E E  E
|-------------------|----------------------|
|-------------------|----------------------|
|-------------------|----------------------|
|-------------------|----------------------|
|-(5)-5-5-5-5-5-5-5-|-(5)-5-5-5--5--5-5--7-|
|-(3)-3-3-3-3-3-3-2-|-(2)-2-2-2--2--2-2--5-|


                    E/G#                   G
   +H.            E  E    +H.            E  E
|----------------------|----------------------|
|----------------13-12-|-(12)--------------12-|
|-(14)-----------------|----------------14----|
|----------------------|----------------------|
|-(12)-----------15-14-|-(14)-----------12-14-|
|----------------------|----------------------|
|
| Gtr I
|          PM
|  +E  E E E E E  E  E    +E  E E E E E  E  E
|----------------------|----------------------|
|----------------------|----------------------|
|--(9)---9---9-------9-|--(9)---9---9-------7-|
|--(7)-7-7-7-7-7--7--6-|--(6)-6-6-6-6-6--6--5-|
|----------------------|----------------------|
|----------------------|----------------------|
|
|      PM  PM  PM|            PM  PM  PM|
|  +E  E E E E E  E  E    +E  E E E E E  E  E
|----------------------|----------------------|
|----------------------|----------------------|
|----------------------|----------------------|
|----------------------|----------------------|
|--(7)-7-7-7-7-7--7--7-|--(7)-7-7-7-7-7--7--5-|
|--(5)-5-5-5-5-5--5--4-|--(4)-4-4-4-4-4--4--3-|


                    D/F#                               A5
                                            |--3--|
   +H..               E    +E   E  E  E  E  S  S  S  E  E
|-------------------/12-|-(12)----------------------------|
|-(12)------------------|------15-13-12-13-12-13-12-------|
|-----------------------|---------------------------12-14-|
|-------------------/14-|-(14)-12-------------------------|
|-(14)------------------|---------15-14-15-14-15-14----12-|
|-----------------------|---------------------------15----|
|
|  +E   E E E E E E   E    +E   E  E  E  E  E        E  E
|-----------------------|---------------------------------|
|-----------------------|---------------------------------|
|--(7)----7---7-------7-|--(7)-----7-----7--------------9-|
|--(5)--5-5-5-5-5-5---4-|--(4)--4--4--4--4--4--------4--7-|
|-----------------------|---------------------------------|
|-----------------------|---------------------------------|
|
|       PM  PM  PM|             PM------------------|
|  +E   E E E E E E   E    +E   E  E  E  E  E        E  E
|-----------------------|---------------------------------|
|-----------------------|---------------------------------|
|-----------------------|---------------------------------|
|-----------------------|---------------------------------|
|--(5)--5-5-5-5-5-5---5-|--(5)--5--5--5--5--5--------5--7-|
|--(3)--3-3-3-3-3-3---2-|--(2)--2--2--2--2--2--------2--5-|


                    E/G#                   G
   +H.            E  E    +H.            E  E
|----------------------|----------------------|
|----------------13-12-|-(12)--------------12-|
|-(14)-----------------|----------------14----|
|----------------------|----------------------|
|-(12)-----------15-14-|-(14)-----------12-14-|
|----------------------|----------------------|
|
|          PM
|  +E  E E E E E  E  E    +E  E E E E E  E  E
|----------------------|----------------------|
|----------------------|----------------------|
|--(9)---9---9-------9-|--(9)---9---9-------7-|
|--(7)-7-7-7-7-7--7--6-|--(6)-6-6-6-6-6--6--5-|
|----------------------|----------------------|
|----------------------|----------------------|
|
|      PM  PM  PM|            PM  PM  PM|
|  +E  E E E E E  E  E    +E  E E E E E  E  E
|----------------------|----------------------|
|----------------------|----------------------|
|----------------------|----------------------|
|----------------------|----------------------|
|--(7)-7-7-7-7-7--7--7-|--(7)-7-7-7-7-7--7--5-|
|--(5)-5-5-5-5-5--5--4-|--(4)-4-4-4-4-4--4--3-|


                    D/F#                               A5
                                            |--3--|
   +H..               E    +E   E  E  E  E  S  S  S  E  E
|-------------------/12-|-(12)----------------------------|
|-(12)------------------|------15-13-12-13-12-13-12-------|
|-----------------------|---------------------------12-14-|
|-------------------/14-|-(14)-12-------------------------|
|-(14)------------------|---------15-14-15-14-15-14----12-|
|-----------------------|---------------------------15----|
|
|  +E   E E E E E E   E     E   E  E  E  E  E        E  E
|-----------------------|---------------------------------|
|-----------------------|---------------------------------|
|--(7)----7---7-------7-|---7------7-----7----------------|
|--(5)--5-5-5-5-5-5---4-|---4---4--4--4--4--4--------4----|
|-----------------------|-------------------------------7-|
|-----------------------|-------------------------------5-|
|
|       PM  PM  PM|             PM------------------|
|  +E   E E E E E E   E    +E   E  E  E  E  E        E  E
|-----------------------|---------------------------------|
|-----------------------|---------------------------------|
|-----------------------|---------------------------------|
|-----------------------|---------------------------------|
|--(5)--5-5-5-5-5-5---5-|--(5)--5--5--5--5--5--------5--7-|
|--(3)--3-3-3-3-3-3---2-|--(2)--2--2--2--2--2--------2--5-|


 4th Lead - M. Amott
                                E/G#                            G
  Gtr III
    Q.       E     +Q         E  E   +Q     H           +E       S  S
|----------------------------------|----------------------------------|
|----------------------------------|----------------------------------|
|-----------12b14-(12)pb14\-----/9-|-(9)---12b14-------(12)pb14-14-17-|
|----------------------------------|----------------------------------|
|----------------------------------|----------------------------------|
|----------------------------------|----------------------------------|
|
| Gtr IV
|  +H               H                 W
|----------------------------------|----------------------------------|
|----------------------------------|----------------------------------|
|-(14)\----------------------------|----------------------------------|
|----------------------------------|----------------------------------|
|-(12)\----------------------------|----------------------------------|
|----------------------------------|----------------------------------|
|
| Gtrs I, II
|       PM--|               PM|          PM------|   PM|
|  +E   E E  E      E       E E  E   +E  E  E    E E E   E       E
|----------------------------------|----------------------------------|
|----------------------------------|----------------------------------|
|----------------------------------|----------------------------------|
|----------------------------------|----------------------------------|
|--(7)--7-7--7------7-------7-7--7-|-(7)-7--7----7-7-7---7-------5----|
|--(5)--5-5--5------5-------5-5--4-|-(4)-4--4----4-4-4---4-------3----|


                                                D/F#                            A5
   S   S  S  S  S  S  S  S  S a  S  S  S  E      +E     +Q.       E  +Q.      a  E
|----------------------------------------------------|-----------------------17-19-|
|----------------------------------------------------|-----------------------------|
|-14-----14-17-14----14-17-14---14-------------------|-----------------------------|
|-----13----------16----------x----17-14-------------|-----------------------------|
|----------------------------------------17b19==(17)-|-(17)r-----17-(17)-----------|
|----------------------------------------------------|-----------------------------|
|
|  W                                                     W
|----------------------------------------------------|-----------------------------|
|----------------------------------------------------|-----------------------------|
|----------------------------------------------------|-----------------------------|
|----------------------------------------------------|-----------------------------|
|----------------------------------------------------|-----------------------------|
|----------------------------------------------------|-----------------------------|
|
|         PM---------|              PM---|                   PM--|       PM|
| +E      E     E     E     E       E     E       E     +E   E E  E   E  E E     E
|----------------------------------------------------|-----------------------------|
|----------------------------------------------------|-----------------------------|
|----------------------------------------------------|-----------------------------|
|----------------------------------------------------|-----------------------------|
|-(5)-----5-----5-----5-----5-------5-----5-------5--|--(5)--5-5--5---5--5-5-----7-|
|-(3)-----3-----3-----3-----3-------3-----3-------2--|--(2)--2-2--2---2--2-2-----5-|


                        E/G#                           G
  Gtr III
                                        ~~~~~~~
   H           Q.        S  S    S   S  E  +H.
|-19b20-------19b20-----19-17-|-20p=17-------------------|
|-----------------------------|--------17-(17)-----------|
|-----------------------------|--------------------------|
|-----------------------------|--------------------------|
|-----------------------------|--------------------------|
|-----------------------------|--------------------------|
|
| Gtrs I, II
|       PM--|       PM|                 PM-----|   PM|
| +E    E E E  E    E E  E      +E      E   E  E E E E E
|-----------------------------|--------------------------|
|-----------------------------|--------------------------|
|-----------------------------|--------------------------|
|-----------------------------|--------------------------|
|-(7)---7-7-7--7----7-7--7----|-(7)-----7---7--7-7-7-7-5-|
|-(5)---5-5-5--5----5-5--4----|-(4)-----4---4--4-4-4-4-3-|


                                       D/F#
  |-3-|  |-----3------|    |----3----|
  a a a  Q       Q    Q    Q    Q    Q
|-------22b24---22---20---19---20---19---|
|-----x----------------------------------|
|---x------------------------------------|
|-x--------------------------------------|
|----------------------------------------|
|----------------------------------------|
|
|             PM--------|    PM---|
|       +E    E    E    E  E E    E    E
|----------------------------------------|
|----------------------------------------|
|----------------------------------------|
|----------------------------------------|
|-------(5)---5----5----5--5-5----5----5-|
|-------(3)---3----3----3--3-3----3----2-|


  Q=165                Q=140
  N.C.
    ~~~
    W                     W
|--22------------------|--------------------|
|----------------------|--------------------|
|----------------------|--------------------|
|----------------------|--------------------|
|----------------------|--------------------|
|----------------------|--------------------|
|
|   |--3--|  |--3--|      |--3--|  |-3--|
|   Q  Q  Q  Q  Q  Q      Q  Q  Q  Q  Q Q
|----------------------|--------------------|
|-/15-13-12------------|-13-12-10-----------|
|-----------14-12-10---|----------13-10-9---|
|-/12-10--9------------|-10--9--7-----------|
|-----------12-10--8---|----------11--8-7---|
|----------------------|--------------------|


   Chorus
    Am
    Gtr IV
    Q        E    E    +Q         E   E
||----------------------------------------|
||o---------13---12---(12)-------13-------|
||------------------------------------9---|
||----------------------------------------|
||o---------------------------------------|
||----------------------------------------|
|
|   Gtr III
|   Q        E    E    +Q         E   E
||----------------------------------------|
||o---------------------------------------|
||----------------------------------------|
||----------10----9----(9)-------10-------|
||o-----------------------------------7---|
||----------------------------------------|
|
|   Gtrs I, II
|   S S S S  S S  S S   S  S S S  S S S S
||----------------------------------------|
||o---------------------------------------|
||----------------------------------------|
||--7-7-7-7--7-7--7-7---7--7-7-7--7-7-7-7-|
||o---------------------------------------|
||--5-5-5-5--5-5--5-5---5--5-5-5--5-5-5-5-|


  +Q         E    E    +Q         E    E
|-------------------------------------------|
|-----------13---12---(12)-------13---------|
|-(9)---------------------------------10----|
|-------------------------------------------|
|-------------------------------------------|
|-------------------------------------------|
|
| +Q         E    E    +Q         E    E
|-------------------------------------------|
|-------------------------------------------|
|-------------------------------------------|
|-----------10----9----(9)-------10---------|
|-(7)----------------------------------8----|
|-------------------------------------------|
|
|  S  S S S  S S  S S   S  S S S  S S  S S
|-------------------------------------------|
|-------------------------------------------|
|-------------------------------------------|
|--7--7-7-7--7-7--7-7---7--7-7-7--7-7--7-7--|
|-------------------------------------------|
|--5--5-5-5--5-5--5-5---5--5-5-5--5-5--5-5--|


  Dm
   +Q         E    E    +Q         E   E
|------------------------------------------|
|------------13---12---(12)-------10---9---|
|-(10)-------------------------------------|
|------------------------------------------|
|------------------------------------------|
|------------------------------------------|
|
|  +Q         E    E    +Q         E   E
|------------------------------------------|
|------------------------------------------|
|------------------------------------------|
|------------10----9----(9)--------7---6---|
|--(8)-------------------------------------|
|------------------------------------------|
|
|   S  S S S  S S  S S   S  S S S  S S S S
|------------------------------------------|
|------------------------------------------|
|---7--7-7-7--7-7--7-7---7--7-7-7--7-7-7-7-|
|------------------------------------------|
|---5--5-5-5--5-5--5-5---5--5-5-5--5-5-5-5-|
|------------------------------------------|


  E
  +Q         E    E    +Q        E    E
|-----------------------------------------|
|-(9)-------10---12---(12)-------9---10---|
|-----------------------------------------|
|-----------------------------------------|
|-----------------------------------------|
|-----------------------------------------|
|
| +Q         E    E    +Q        E    E
|-----------------------------------------|
|-----------------------------------------|
|-----------------------------------------|
|-(6)--------7----9----(9)-------6----7---|
|-----------------------------------------|
|-----------------------------------------|
|
|  S  S S S  S S  S S   S  S S S S S  S S
|-----------------------------------------|
|-----------------------------------------|
|--9--9-9-9--9-9--9-9---9--9-9-9-9-9--9-9-|
|-----------------------------------------|
|--7--7-7-7--7-7--7-7---7--7-7-7-7-7--7-7-|
|-----------------------------------------|


  F
   +Q             Q             Q             Q
|----------------12------------10------------12--------|
|-(10)----------(13)----------(12)----------(13)-------|
|------------------------------------------------------|
|------------------------------------------------------|
|------------------------------------------------------|
|------------------------------------------------------|
|
|  +Q             Q             Q             Q
|------------------------------------------------------|
|------------------------------------------------------|
|------------------------------------------------------|
|--(7)-----------10-------------9------------10--------|
|------------------------------------------------------|
|------------------------------------------------------|
|
|   S   S  S  S   S   S  S  S   S   S  S  S   S  S S S
|------------------------------------------------------|
|------------------------------------------------------|
|--10--10-10-10--10--10-10-10--10--10-10-10---9--9-9-9-|
|------------------------------------------------------|
|---8---8--8--8---8---8--8--8---8---8--8--8---7--7-7-7-|
|------------------------------------------------------|


  Dm
    W
|------------------------------------|
|--13--------------------------------|
|-(10)-------------------------------|
|------------------------------------|
|------------------------------------|
|------------------------------------|
|
|   W
|------------------------------------|
|------------------------------------|
|------------------------------------|
|------------------------------------|
|---8--------------------------------|
|------------------------------------|
|
|   S  S S S S S S S S S S S S S S S
|------------------------------------|
|------------------------------------|
|---7--7-7-7-7-7-7-7-7-7-7-7-7-7-7-7-|
|------------------------------------|
|---5--5-5-5-5-5-5-5-5-5-5-5-5-5-5-5-|
|------------------------------------|


  Esus4
   S   S  S  S  S  S  S   S  S  S  S  S  S  S  S  S
|---------------------------------------------------|
|-10--10-10-10-10-10-10--10-10-10-10-10-10-10-10-10-|
|---------------------------------------------------|
|--7---7--7--7--7--7--7---7--7--7--7--7--7--7--7--7-|
|---------------------------------------------------|
|---------------------------------------------------|
|
|  Q.                 Q.                 Q
|---------------------------------------------------|
|---------------------------------------------------|
|---------------------------------------------------|
|--7------------------9-----------------10----------|
|---------------------------------------------------|
|---------------------------------------------------|
|
|  S   S  S  S  S  S  S   S  S  S  S  S  S  S  S  S
|---------------------------------------------------|
|---------------------------------------------------|
|--9---9--9--9--9--9--9---9--9--9--9--9--9--9--9--9-|
|---------------------------------------------------|
|--7---7--7--7--7--7--7---7--7--7--7--7--7--7--7--7-|
|---------------------------------------------------|


  E
     W
|--------------------------------------||
|----9--------------------------------o||
|--------------------------------------||
|----6---------------------------------||
|-------------------------------------o||
|--------------------------------------||
|
|    W
|-/(12)--------------------------------||
|-------------------------------------o||
|---/9---------------------------------||
|--------------------------------------||
|-------------------------------------o||
|--------------------------------------||
|
|    S  S S S S S S S S S S S S S S S
|--------------------------------------||
|-------------------------------------o||
|----9--9-9-9-9-9-9-9-9-9-9-9-9-9-9-9--||
|--------------------------------------||
|----7--7-7-7-7-7-7-7-7-7-7-7-7-7-7-7-o||
|--------------------------------------||


 Outro
  Ebsus4                               Eb
  Gtr III
    W                                   +W
|-(11)-------------------------------|-(11)----|
|------------------------------------|---------|
|---8--------------------------------|--(8)----|
|------------------------------------|---------|
|------------------------------------|---------|
|------------------------------------|---------|
|
| Gtr I
|   S  S S S S S S S S S S S S S S S     W
|------------------------------------|---------|
|---9--9-9-9-9-9-9-9-9-9-9-9-9-9-9-9-|---8-----|
|---8--8-8-8-8-8-8-8-8-8-8-8-8-8-8-8-|---8-----|
|------------------------------------|---------|
|------------------------------------|---------|
|------------------------------------|---------|
|
| Gtr II
|   S  S S S S S S S S S S S S S S S     W
|------------------------------------|---------|
|------------------------------------|---------|
|---8--8-8-8-8-8-8-8-8-8-8-8-8-8-8-8-|---8-----|
|------------------------------------|---------|
|---6--6-6-6-6-6-6-6-6-6-6-6-6-6-6-6-|---6-----|
|------------------------------------|---------|


  Dsus4                             D
  Gtr I
  S S S S S S S S S S S S S S S S   W
|---------------------------------|------|
|-8-8-8-8-8-8-8-8-8-8-8-8-8-8-8-8-|-7----|
|-7-7-7-7-7-7-7-7-7-7-7-7-7-7-7-7-|-7----|
|---------------------------------|------|
|---------------------------------|------|
|---------------------------------|------|
|
| Gtr II
| S S S S S S S S S S S S S S S S   W
|---------------------------------|------|
|---------------------------------|------|
|-7-7-7-7-7-7-7-7-7-7-7-7-7-7-7-7-|-7----|
|---------------------------------|------|
|-5-5-5-5-5-5-5-5-5-5-5-5-5-5-5-5-|-5----|
|---------------------------------|------|


  C#sus4                            C#          A5
  S S S S S S S S S S S S S S S S   W           W
|---------------------------------|----------||------|
|-7-7-7-7-7-7-7-7-7-7-7-7-7-7-7-7-|-6--------||------|
|-6-6-6-6-6-6-6-6-6-6-6-6-6-6-6-6-|-6--------||------|
|---------------------------------|----------||------|
|---------------------------------|----------||-7----|
|---------------------------------|----------||-5----|
|
| S S S S S S S S S S S S S S S S   W           W
|---------------------------------|----------||------|
|---------------------------------|----------||------|
|-6-6-6-6-6-6-6-6-6-6-6-6-6-6-6-6-|-6--------||------|
|---------------------------------|----------||------|
|-4-4-4-4-4-4-4-4-4-4-4-4-4-4-4-4-|-4--------||-7----|
|---------------------------------|----------||-5----|


               N.C.                              (E5)
  Gtrs I, II
               PM----------------------------|
  +W           S S S S S S S S S S S S S S S S   e E H.
|------------|---------------------------------|-----------*|
|------------|---------------------------------|-----------*|
|------------|---------------------------------|-----------*|
|------------|---------------------------------|-----------*|
|-(7)--------|-------5-5-5-------5-5-5---------|-----------*|
|-(5)--------|-2-1-0-------6-5-4-------2-1-0-0-|-0---------*|

Duration Legend
---------------
W - whole; H - half; Q - quarter; E - 8th; S - 16th; T - 32nd; X - 64th; a - acciaccatura
+ - note tied to previous; . - note dotted; .. - note double dotted
Uncapitalized letters represent notes that are staccato (1/2 duration)
Irregular groupings are notated above the duration line
Duration letters will always appear directly above the note/fret number it represents the
duration for.  Duration letters with no fret number below them represent rests.  Multi-
bar rests are notated in the form Wxn, where n is the number of bars to rest for.  Low
melody durations appear below the staff

Tablature Legend
----------------
 h   - hammer-on
 p   - pull-off
 b   - bend
 pb  - pre-bend
 r   - bend release (if no number after the r, then release immediately)
 /\  - slide into or out of (from/to "nowhere")
 s   - legato slide
 S   - shift slide
 - natural harmonic
[n]  - artificial harmonic
n(n) - tapped harmonic
 ~   - vibrato
 tr  - trill
 T   - tap
 TP  - trem. picking
 PM  - palm muting
\n/  - tremolo bar dip; n = amount to dip
 \n  - tremolo bar down
 n/  - tremolo bar up
/n\  - tremolo bar inverted dip
 =   - hold bend; also acts as connecting device for hammers/pulls
 <> - volume swell (louder/softer)
 x   - on rhythm slash represents muted slash
 o   - on rhythm slash represents single note slash

Misc Legend
-----------
 |  - bar
||  - double bar
||o - repeat start
o|| - repeat end
*|  - double bar (ending)
 :  - bar (freetime)
 $  - Segno
 &  - Coda
Tempo markers -  = BPM(8/16=s8/s16), where s8 = swing 8ths, s16 = swing 16ths
Tap to rate this tab
 
# A B C D E F G H I J K L M N O P Q R S T U V W X Y Z