Song name
# A B C D E F G H I J K L M N O P Q R S T U V W X Y Z

Arch Enemy - Screams Of Anger tab

Screams Of Anger - Arch Enemy

 c|-----------|------------|
 g|-----------|------------|
d#|-----------|------------|
a#|--3--6--1--|--6--8--10--|
 f|--3--6--1--|--6--8--10--|
a#|--3--6--1--|--6--8--10--|
pm   .

 c|----------------------|---------|------------------------------|
 g|----------------------|---------|------------------------------|
d#|----------------------|---------|------------------------------|
a#|--10--11--13--11--10--|--8--10--|--10--12--13--12--13--15--17--|
 f|---8---8--10---9---8--|--6---8--|---8--10--11--10--11--13--15--|
a#|----------------------|---------|------------------------------|
pm                          .   .

 c|----------------------------------------------------------------|
 g|----------------------------------------------------------------|
d#|----------------------------------------------------------------|
a#|--10--8--6--8--6--5--6--5--3-----10--8--6--8--6--5--6--5--3--5--|
 f|---8--6--4--6--4--3--4--3--1--8---8--6--4--6--4--3--4--3--1--3--|
a#|------------------------------8---------------------------------|

Tap to rate this tab
 
# A B C D E F G H I J K L M N O P Q R S T U V W X Y Z