Song name
# A B C D E F G H I J K L M N O P Q R S T U V W X Y Z

Arch Enemy - Web Of Lies tab

#----------------------------------PLEASE NOTE---------------------------------#
#This file is the author's own work and represents their interpretation of the #
#song. You may only use this file for private study, scholarship, or research. #
#------------------------------------------------------------------------------#

WEB OF LIES
As recorded by Arch Enemy
(From the 2001 Album WEB OF LIES)

Transcribed by SoggieMufin
	

Words and Music by Arch Enemy

Gtr I (C F Bb Eb G C) - 'Guitar one'
Gtr II (C F Bb Eb G C) - 'Guitar 2'
Gtr III (C F Bb Eb G C) - 'Harmony Guitar'
Gtr IV (C F Bb Eb G C) - 'Solo Guitar'

 Intro
  Q=178
               B5                                   Bb5
 4/4
  Gtr I        Gtr I
  Wx2          E E E  E E E E E   E E E E E E E E   E E E  E E E E E
|------------|------------------|-----------------|------------------|
|------------|------------------|-----------------|------------------|
|------------|------------------|-----------------|------------------|
|------------|------------------|-----------------|------------------|
|------------|-2-2-5--5-4-4-2-2-|-4-4-2-2-4-4-5-5-|-1-1-5--5-4-4-1-1-|
|------------|------------------|-----------------|------------------|
|
|              Gtr II
| Wx2          E E H.             H       E E E E   E E H.
|------------|------------------|-----------------|------------------|
|------------|------------------|-----------------|------------------|
|------------|------------------|-----------------|------------------|
|------------|-4----------------|-----------4---4-|-3----------------|
|------------|-2----------------|-----------2---2-|-1----------------|
|------------|------------------|-----------------|------------------|


                    A5
  E E E E E E E E   E E E  E E E E E   E E E E E E E E
|-----------------|------------------|-----------------|
|-----------------|------------------|-----------------|
|-----------------|------------------|-----------------|
|-----------------|------------------|-----------------|
|-4-4-1-1-4-4-5-5-|-0-0-5--5-4-4-0-0-|-4-4-0-0-4-4-5-5-|
|-----------------|------------------|-----------------|
|
| H       E E E E   E E H.             H       E E E E
|-----------------|------------------|-----------------|
|-----------------|------------------|-----------------|
|-----------------|------------------|-----------------|
|-----------3---3-|-2----------------|-----------2---2-|
|-----------1---1-|-0----------------|-----------0---0-|
|-----------------|------------------|-----------------|


  G5         F5
  Gtrs I, II
  W          W
|----------|------||
|----------|------||
|----------|------||
|----------|------||
|-5--------|-3----||
|-3--------|-1----||


   Verse
    $
    N.C.
    Gtr I
    E E E E E E E E   E E E E E E E E   E E E E E E E E   E E E E E E E E
||------------------|-----------------|-----------------|-----------------|
||o-----------------|-----------------|-----------------|-----------------|
||------------------|-----------------|-----------------|-----------------|
||------------------|-----------------|-----------------|-----------------|
||o-2-2-5-5-4-4-2-2-|-4-4-2-2-4-4-5-5-|-1-1-5-5-4-4-1-1-|-4-4-1-1-4-4-5-5-|
||------------------|-----------------|-----------------|-----------------|
|
|   Gtr II
|   E E E E E E E E   E E E E E E E E   E E E E E E E E   E E E E E E E E
||------------------|-----------------|-----------------|-----------------|
||o-----------------|-----------------|-----------------|-----------------|
||------------------|-----------------|-----------------|-----------------|
||------------------|-----------------|-----------------|-----------------|
||o-5-5-9-9-7-7-5-5-|-7-7-5-5-7-7-9-9-|-5-5-9-9-7-7-5-5-|-7-7-5-5-7-7-9-9-|
||------------------|-----------------|-----------------|-----------------|


  E E E E E E E E   E E E E E E E E   E E E E E E E E   E E E E E E E E
|-----------------|-----------------|-----------------|-------------------||
|-----------------|-----------------|-----------------|------------------o||
|-----------------|-----------------|-----------------|-------------------||
|-----------------|-----------------|-----------------|-------------------||
|-0-0-5-5-4-4-0-0-|-4-4-0-0-4-4-5-5-|-----------------|------------------o||
|-----------------|-----------------|-3-3-3-3-3-3-3-3-|-1-1-1-1-1-1-1-1---||
|
| E E E E E E E E   E E E E E E E E   E E E E E E E E   E E E E E E E E
|-----------------|-----------------|-----------------|-------------------||
|-----------------|-----------------|-----------------|------------------o||
|-----------------|-----------------|-----------------|-------------------||
|-----------------|-----------------|-----------------|-------------------||
|-5-5-9-9-7-7-5-5-|-7-7-5-5-7-7-9-9-|-----------------|------------------o||
|-----------------|-----------------|-7-7-7-7-7-7-7-7-|-5-5-5-5-5-5-5-5---||


 Prechorus
  A5
  Gtr II
  H      E E E E   +E  E +H.
|----------------|---------------------|
|----------------|---------------------|
|--------5-4---4-|-(4)-5-(5)-----------|
|------------7---|---------------------|
|----------------|---------------------|
|----------------|---------------------|
|
| Gtr I
|    PM------------------------------|
| Q  E E E E E E    E  E  E  E E E E E
|----------------|---------------------|
|----------------|---------------------|
|----------------|---------------------|
|----------------|---------------------|
|-7--7-7-7-7-7-7-|--7--7--7--7-7-7-7-7-|
|-5--5-5-5-5-5-5-|--5--5--5--5-5-5-5-5-|


  G#5
  H      E E E E   +E  E +E  E +H
|----------------|------------------------|
|----------------|------------------------|
|--------5-4---4-|-(4)-5-(5)--------------|
|------------7---|-----------6-(6)--------|
|----------------|------------------------|
|----------------|------------------------|
|
|    PM--------------------------------|
| Q  E E E E E E    E  E  E  E  E  E E E
|----------------|------------------------|
|----------------|------------------------|
|----------------|------------------------|
|----------------|------------------------|
|-6--6-6-6-6-6-6-|--6--6--6--6--6--6-6-6--|
|-4--4-4-4-4-4-4-|--4--4--4--4--4--4-4-4--|


  G5
  H      E E E E   +E  E +H.
|----------------|---------------------|
|----------------|---------------------|
|--------5-4---4-|-(4)-5-(5)-----------|
|------------7---|---------------------|
|----------------|---------------------|
|----------------|---------------------|
|
|    PM------------------------------|
| Q  E E E E E E    E  E  E  E E E E E
|----------------|---------------------|
|----------------|---------------------|
|----------------|---------------------|
|----------------|---------------------|
|-5--5-5-5-5-5-5-|--5--5--5--5-5-5-5-5-|
|-3--3-3-3-3-3-3-|--3--3--3--3-3-3-3-3-|


  F#5
  H      E E E E   +E  E +E   E +H
|----------------|--------------------------|
|----------------|--------------------------|
|--------5-4---4-|-(4)-5-(5)-/9-(9)---------|
|------------7---|--------------------------|
|----------------|--------------------------|
|----------------|--------------------------|
|
|    PM------|
| Q  E E E E E E   +E  E +E   E +E  E +E  E
|----------------|--------------------------|
|----------------|--------------------------|
|----------------|--------------------------|
|----------------|--------------------------|
|-4--4-4-4-4-4-4-|-(4)-4-(4)--4-(4)-4-(4)-4-|
|-2--2-2-2-2-2-2-|-(2)-2-(2)--2-(2)-2-(2)-2-|


  F5                               E5
  Gtr II
  H     E E E E   +E  E +H.        H      E E E E   +E   E  +E  E +H
|---------------|----------------|----------------|----------------------||
|---------------|----------------|------/10-8---8-|-(8)-10-(10)-9-(9)----||
|------/9-7-5-7-|-(7)-9-(9)------|------------9---|----------------------||
|---------------|----------------|----------------|----------------------||
|---------------|----------------|----------------|----------------------||
|---------------|----------------|----------------|----------------------||
|
| Gtr III
| H     E E E E   +E  E +H.        H      E E E E   +E   E  +E  E +H
|---------------|----------------|----------------|----------------------||
|---------------|----------------|----------------|----------------------||
|------/5-4---4-|-(4)-5-(5)------|--------5-4---4-|-(4)--5--(5)----------||
|-----------7---|----------------|------------7---|-------------6-(6)----||
|---------------|----------------|----------------|----------------------||
|---------------|----------------|----------------|----------------------||
|
| Gtr I
| W               +W               W                +W
|---------------|----------------|----------------|----------------------||
|---------------|----------------|----------------|----------------------||
|---------------|----------------|----------------|----------------------||
|---------------|----------------|----------------|----------------------||
|-3-------------|-(3)------------|-2--------------|-(2)------------------||
|-1-------------|-(1)------------|-0--------------|-(0)------------------||


  F#sus4                              F#
  Gtrs I, II
  PM|   PM--|   PM----|   PM--|   PM----|   PM--|   PM----|   PM--|   PM
  E E E E E E E E   E E E E E E E E   E E E E E E E E   E E E E E E E E
|-----------------|-----------------|-----------------|-----------------||
|-----------------|-----------------|-----------------|-----------------||
|-----4-------4---|-----4-------4---|-----3-------3---|-----3-------3---||
|-----------------|-----------------|-----------------|-----------------||
|-----------------|-----------------|-----------------|-----------------||
|-2-2---2-2-2---2-|-2-2---2-2-2---2-|-2-2---2-2-2---2-|-2-2---2-2-2---2-||


 Chorus
  E5                                   B/D#
   E E E E E E E E   E E E E E E E E   E E E E E E E E   E E E E E E E E
|------------------|-----------------|-----------------|-----------------|
|------------------|-----------------|-----------------|-----------------|
|-/9-9-9-9-9-9-9-9-|-9-9-9-9-9-9-9-9-|-8-8-8-8-8-8-8-8-|-8-8-8-8-8-8-8-8-|
|-/9-9-9-9-9-9-9-9-|-9-9-9-9-9-9-9-9-|-9-9-9-9-9-9-9-9-|-9-9-9-9-9-9-9-9-|
|-/7-7-7-7-7-7-7-7-|-7-7-7-7-7-7-7-7-|-6-6-6-6-6-6-6-6-|-6-6-6-6-6-6-6-6-|
|------------------|-----------------|-----------------|-----------------|


  A5         D5         E5                         N.C.
                           PM--------------------| ~~
  W          W          Q  E E E E E E   E E E E E Q.
|----------|----------|----------------|----------------|
|----------|----------|----------------|----------------|
|----------|-7--------|----------------|----------------|
|-7--------|-7--------|-2--------------|----------------|
|-7--------|-5--------|-2--------------|----------------|
|-5--------|----------|-0--0-0-0-0-0-0-|-0-0-0-0-0-2----|


  G5
    E  E  E  E  E  E  E  E    E  E  E  E  E  E  E  E
|--------------------------|-------------------------|
|--------------------------|-------------------------|
|-/12-12-12-12-12-12-12-12-|-12-12-12-12-12-12-12-12-|
|-/12-12-12-12-12-12-12-12-|-12-12-12-12-12-12-12-12-|
|-/10-10-10-10-10-10-10-10-|-10-10-10-10-10-10-10-10-|
|--------------------------|-------------------------|


  D/F#
   E  E  E  E  E  E  E  E    E  E  E  E  E  E  E  E
|-------------------------|-------------------------|
|-------------------------|-------------------------|
|-11-11-11-11-11-11-11-11-|-11-11-11-11-11-11-11-11-|
|-12-12-12-12-12-12-12-12-|-12-12-12-12-12-12-12-12-|
|--9--9--9--9--9--9--9--9-|--9--9--9--9--9--9--9--9-|
|-------------------------|-------------------------|


                                 D.S.
  C5         A/C#       D5         B/D#
  W          W          W          W
|----------|----------|----------|-------||
|----------|----------|----------|-------||
|----------|----------|----------|-------||
|-5--------|-7--------|-7--------|-9-----||
|-3--------|-4--------|-5--------|-6-----||
|----------|----------|----------|-------||


 Solo
  A5                          B5
  Gtr IV
  E E E E +E  +E    +Q        E E   E E H
|-----5-7-(7)-(7)b8-(7)pb8--|---7b8-7-5---------|
|---5-----------------------|-----------8b10----|
|---------------------------|-------------------|
|-7-------------------------|-------------------|
|---------------------------|-------------------|
|---------------------------|-------------------|
|
| Gtrs I, II
| W                           W
|---------------------------|-------------------|
|---------------------------|-------------------|
|---------------------------|-------------------|
|-2-------------------------|-4-----------------|
|-0-------------------------|-2-----------------|
|---------------------------|-------------------|


  C5                     D5
                 |-3-|   |-3-| |-3-|
  E E    E E E E E E E   E E E E E E +H
|----------------------|--------------------|
|---8b10-8-7-8-7-5-----|--------------------|
|------------------7-5-|--------------------|
|----------------------|-7-5----------------|
|----------------------|-----7-5------------|
|----------------------|---------8-5-(5)----|
|
| W                      W
|----------------------|--------------------|
|----------------------|--------------------|
|----------------------|--------------------|
|-5--------------------|-7------------------|
|-3--------------------|-5------------------|
|----------------------|--------------------|


  A5                B5
  E E E E E E E E   E E E E E E E E
|-----------------|-----------------|
|-------8-7-------|-----------------|
|-----9-----7-9-5-|-4---------------|
|---7-------------|---5---5-7-5-4---|
|-----------------|-----7---------5-|
|-----------------|-----------------|
|
| W                 W
|-----------------|-----------------|
|-----------------|-----------------|
|-----------------|-----------------|
|-2---------------|-4---------------|
|-0---------------|-2---------------|
|-----------------|-----------------|


  C5                    D5
                         ~~~~~
  E E E E +E  E +E  E   +W
|---------------------|----------|
|---------------------|----------|
|---------------------|----------|
|---------------------|----------|
|-7-5-3---------------|----------|
|-------7-(7)-3-(3)-3-|-(3)b5----|
|
| W                      W
|---------------------|----------|
|---------------------|----------|
|---------------------|----------|
|-5-------------------|--7-------|
|-3-------------------|--5-------|
|---------------------|----------|


  N.C.
  S S S S S S S S S S S S S S  S S
|----------------------------------|
|----------------------------------|
|--------------------------------7-|
|---------------5-7-5---5-7-9-10---|
|-------3-5-7-9-------9------------|
|-3-5-7----------------------------|
|
| TP
| W
|----------------------------------|
|----------------------------------|
|----------------------------------|
|----------------------------------|
|-0--------------------------------|
|----------------------------------|


  S S  S S S  S  S  S  S  S  S  S  S  S  S  S
|------------------------------------------12-|
|------------------10-11-10----10-12-13-15----|
|-9-7----7-9-11-12----------12----------------|
|-----10--------------------------------------|
|---------------------------------------------|
|---------------------------------------------|
|
| TP
| W
|---------------------------------------------|
|---------------------------------------------|
|---------------------------------------------|
|---------------------------------------------|
|-2-------------------------------------------|
|---------------------------------------------|


   S  S  S  S  S  S  S  S  S  S  S  S  S  S  S  S
|-14-------------15-17-19-20-19-17----------------|
|----17-15-17-19-------------------20-19-17-------|
|-------------------------------------------19-17-|
|-------------------------------------------------|
|-------------------------------------------------|
|-------------------------------------------------|
|
|  TP
|  W
|-------------------------------------------------|
|-------------------------------------------------|
|-------------------------------------------------|
|-------------------------------------------------|
|--3----------------------------------------------|
|-------------------------------------------------|


                                       |--3--|
   S  S  S  S  S  S  S  S  S  S  S  S  E  E  E
|-----------------------------------------------|
|-----------------------------------------------|
|-16----------17-16-----------------------------|
|----19-17-15-------17-15-14----------16-14-17--|
|----------------------------17-15-13-----------|
|-----------------------------------------------|
|
|  TP
|  W
|-----------------------------------------------|
|-----------------------------------------------|
|-----------------------------------------------|
|-----------------------------------------------|
|--5--------------------------------------------|
|-----------------------------------------------|


   |--3--|  |--3--|  |--3--|  |--3--|    |--3--|  |--3--|  |--3--|  |--3---|
   E  E  E  E  E  E  E  E  E  E  E  E    E  E  E  E  E  E  E  E  E  E  E  +E
|-------------------------------------|----------15----17-15-19-------19-(19)-|
|-------------------------------------|----15-------15----------15-17---------|
|----14----16-14-17-16-14----16-14-17-|-16----17------------------------------|
|-16----17----------------17----------|---------------------------------------|
|-------------------------------------|---------------------------------------|
|-------------------------------------|---------------------------------------|
|
|  TP                                    TP
|  W                                     W
|-------------------------------------|---------------------------------------|
|-------------------------------------|---------------------------------------|
|-------------------------------------|---------------------------------------|
|-------------------------------------|---------------------------------------|
|--0----------------------------------|--2------------------------------------|
|-------------------------------------|---------------------------------------|


  Gtr IV
                                               ~~~~~
   |--3--|        |--3--|
   S  S  S  S  S  S  S  S  E     +H            H        Q   Q
|-20p19p17----19h20p19p17-------------------|------------------|
|----------20-------------20b22-(20)pb22----|-20b22------------|
|-------------------------------------------|-----------9--12--|
|-------------------------------------------|------------------|
|-------------------------------------------|------------------|
|-------------------------------------------|------------------|
|
| Gtr III
|  W                                           H        Q   Q
|-------------------------------------------|----------12--15--|
|-------------------------------------------|------------------|
|-------------------------------------------|------------------|
|-------------------------------------------|------------------|
|-------------------------------------------|------------------|
|-------------------------------------------|------------------|
|
| Gtrs I, II
|  TP                                          TP
|  W                                           W
|-------------------------------------------|------------------|
|-------------------------------------------|------------------|
|-------------------------------------------|------------------|
|-------------------------------------------|------------------|
|--3----------------------------------------|--5---------------|
|-------------------------------------------|------------------|


  F5
   Q      +E       E     +Q        Q        +H              Q   Q
|----------------------------------------|-------------------------|
|----------------------------------------|-------------------------|
|-12b14--(12)pb14-12b14-(12)pb14--12b14--|-(12)pb14---------9--12--|
|----------------------------------------|-------------------------|
|----------------------------------------|-------------------------|
|----------------------------------------|-------------------------|
|
|  Q      +E       E     +Q        Q        +H              Q   Q
|-15b17--(15)pb17-15b17-(15)pb17--15b17--|-(15)pb17--------12--15--|
|----------------------------------------|-------------------------|
|----------------------------------------|-------------------------|
|----------------------------------------|-------------------------|
|----------------------------------------|-------------------------|
|----------------------------------------|-------------------------|
|
|  Q      +E       E     +Q        Q        +E      E +Q    Q   Q
|----------------------------------------|-------------------------|
|----------------------------------------|-------------------------|
|----------------------------------------|-------------------------|
|----------------------------------------|-------------------------|
|--3------(3)------3-----(3)-------3-----|--(3)-----3-(3)---3---3--|
|--1------(1)------1-----(1)-------1-----|--(1)-----1-(1)---1---1--|


  G5
   Q      +E       E     +Q        Q        +H             S S E E E
|----------------------------------------|-----------------8-7-5-----|
|----------------------------------------|-----------------------8-5-|
|-12b14--(12)pb14-12b14-(12)pb14--12b14--|-(12)pb14------------------|
|----------------------------------------|---------------------------|
|----------------------------------------|---------------------------|
|----------------------------------------|---------------------------|
|
|  Q      +E       E     +Q        Q        +H             H
|-15b17--(15)pb17-15b17-(15)pb17--15b17--|-(15)pb17------------------|
|----------------------------------------|---------------------------|
|----------------------------------------|---------------------------|
|----------------------------------------|---------------------------|
|----------------------------------------|---------------------------|
|----------------------------------------|---------------------------|
|
|  Q      +E       E     +Q        Q        +E      E +Q   Q     Q
|----------------------------------------|---------------------------|
|----------------------------------------|---------------------------|
|----------------------------------------|---------------------------|
|----------------------------------------|---------------------------|
|--5------(5)------5-----(5)-------5-----|--(5)-----5-(5)--5-----5---|
|--3------(3)------3-----(3)-------3-----|--(3)-----3-(3)--3-----3---|


  A5
  E E +H.              E  E  E  E E E E E
|-------------------|-------------5-8-5---|
|-------------------|-----------5-------8-|
|-7p6-(6)-----------|-----6--7------------|
|-------------------|---------------------|
|-------------------|---------------------|
|-------------------|---------------------|
|
| W                    W
|-------------------|---------------------|
|-------------------|---------------------|
|-------------------|---------------------|
|-------------------|---------------------|
|-------------------|---------------------|
|-------------------|---------------------|
|
| Q   +E  E +Q   Q    +E  E +Q    Q   Q
|-------------------|---------------------|
|-------------------|---------------------|
|-------------------|---------------------|
|-------------------|---------------------|
|-7---(7)-7-(7)--7--|-(7)-7-(7)---7---7---|
|-5---(5)-5-(5)--5--|-(5)-5-(5)---5---5---|


  E E  E  E  E  E E E    H          Q   Q
|-5-------------------|--------------------|
|---8--5--8--5--------|--------------------|
|---------------7-6-7-|--6----------9--12--|
|---------------------|--------------------|
|---------------------|--------------------|
|---------------------|--------------------|
|
| W                      H          Q   Q
|---------------------|------------12--15--|
|---------------------|--------------------|
|---------------------|--------------------|
|---------------------|--------------------|
|---------------------|--------------------|
|---------------------|--------------------|
|
| Q   +E  E +Q    Q     +E  E +Q    Q   Q
|---------------------|--------------------|
|---------------------|--------------------|
|---------------------|--------------------|
|---------------------|--------------------|
|-7---(7)-7-(7)---7---|-(7)-7-(7)---7---7--|
|-5---(5)-5-(5)---5---|-(5)-5-(5)---5---5--|


  F5
   Q      +E       E     +Q        Q        +H              Q      E  E
|----------------------------------------|------------------------------|
|----------------------------------------|-----------------15b17--15-13-|
|-12b14--(12)pb14-12b14-(12)pb14--12b14--|-(12)pb14---------------------|
|----------------------------------------|------------------------------|
|----------------------------------------|------------------------------|
|----------------------------------------|------------------------------|
|
|  Q      +E       E     +Q        Q        +H              Q      Q
|-15b17--(15)pb17-15b17-(15)pb17--15b17--|-(15)pb17--------12-----15----|
|----------------------------------------|------------------------------|
|----------------------------------------|------------------------------|
|----------------------------------------|------------------------------|
|----------------------------------------|------------------------------|
|----------------------------------------|------------------------------|
|
|  Q      +E       E     +Q        Q        +E      E +Q    Q      Q
|----------------------------------------|------------------------------|
|----------------------------------------|------------------------------|
|----------------------------------------|------------------------------|
|----------------------------------------|------------------------------|
|--3------(3)------3-----(3)-------3-----|--(3)-----3-(3)---3------3----|
|--1------(1)------1-----(1)-------1-----|--(1)-----1-(1)---1------1----|


  G5
                                                            |--3--|
   Q      +E       E     +Q        Q        +Q         Q    E  E  E  S  S  S  S
|----------------------------------------|---------------------------------------|
|-15-----(15)-----13----(13)------12-----|-(12)-------13---12h13p12h13p12h13p12--|
|----------------------------------------|---------------------------------------|
|----------------------------------------|---------------------------------------|
|----------------------------------------|---------------------------------------|
|----------------------------------------|---------------------------------------|
|
|  Q      +E       E     +Q        Q        +H              H
|-15b17--(15)pb17-15b17-(15)pb17--15b17--|-(15)pb17------------------------------|
|----------------------------------------|---------------------------------------|
|----------------------------------------|---------------------------------------|
|----------------------------------------|---------------------------------------|
|----------------------------------------|---------------------------------------|
|----------------------------------------|---------------------------------------|
|
|  Q      +E       E     +Q        Q        +E      E +Q    Q        Q
|----------------------------------------|---------------------------------------|
|----------------------------------------|---------------------------------------|
|----------------------------------------|---------------------------------------|
|----------------------------------------|---------------------------------------|
|--5------(5)------5-----(5)-------5-----|--(5)-----5-(5)---5--------5-----------|
|--3------(3)------3-----(3)-------3-----|--(3)-----3-(3)---3--------3-----------|


  A5
   ~~~~~~~~~~~~~~~~~~~~          ~~~~~~~~
   H.              +E   E       +W
|----------------------15b17-|-(15)pb17--------------|
|----------------------------|-----------------------|
|-14--------------(14)-------|-----------------------|
|----------------------------|-----------------------|
|----------------------------|-----------------------|
|----------------------------|-----------------------|
|
|  Q   +E  E +Q     Q           +E      E +Q   Q  Q
|----------------------------|-----------------------|
|----------------------------|-----------------------|
|----------------------------|-----------------------|
|----------------------------|-----------------------|
|--7---(7)-7-(7)----7--------|--(7)-----7-(7)--7--7--|
|--5---(5)-5-(5)----5--------|--(5)-----5-(5)--5--5--|


                                         ~~~~~~~
   Q      +Q        +Q       +Q         +W
|-15b17r=(15)b17r==(15)b17r=(15)b17r=|=(15)b20--------------||
|------------------------------------|----------------------||
|------------------------------------|----------------------||
|------------------------------------|----------------------||
|------------------------------------|----------------------||
|------------------------------------|----------------------||
|
|  Q      +E     E  +Q        Q         +E     E +Q   Q  Q
|------------------------------------|----------------------||
|------------------------------------|----------------------||
|------------------------------------|----------------------||
|------------------------------------|----------------------||
|--7------(7)----7--(7)-------7------|--(7)----7-(7)--7--7--||
|--5------(5)----5--(5)-------5------|--(5)----5-(5)--5--5--||


 Chorus
  E5
  Gtrs I, II
   E E E E E E E E   E E E E E E E E
|------------------|-----------------|
|------------------|-----------------|
|-/9-9-9-9-9-9-9-9-|-9-9-9-9-9-9-9-9-|
|-/9-9-9-9-9-9-9-9-|-9-9-9-9-9-9-9-9-|
|-/7-7-7-7-7-7-7-7-|-7-7-7-7-7-7-7-7-|
|------------------|-----------------|


  B/F#
   E  E  E  E  E  E  E  E   E E E E E E E E
|-------------------------|-----------------|
|-------------------------|-----------------|
|-11-11-11-11-11-11-11-11-|-8-8-8-8-8-8-8-8-|
|--9--9--9--9--9--9--9--9-|-9-9-9-9-9-9-9-9-|
|--9--9--9--9--9--9--9--9-|-6-6-6-6-6-6-6-6-|
|-------------------------|-----------------|


  A5         D5         E5                         N.C.
                           PM--------------------| ~~
  W          W          Q  E E E E E E   E E E E E Q.
|----------|----------|----------------|----------------|
|----------|----------|----------------|----------------|
|----------|-7--------|----------------|----------------|
|-7--------|-7--------|-2--------------|----------------|
|-7--------|-5--------|-2--------------|----------------|
|-5--------|----------|-0--0-0-0-0-0-0-|-0-0-0-0-0-2----|


  G5
    E  E  E  E  E  E  E  E    E  E  E  E  E  E  E  E
|--------------------------|-------------------------|
|--------------------------|-------------------------|
|-/12-12-12-12-12-12-12-12-|-12-12-12-12-12-12-12-12-|
|-/12-12-12-12-12-12-12-12-|-12-12-12-12-12-12-12-12-|
|-/10-10-10-10-10-10-10-10-|-10-10-10-10-10-10-10-10-|
|--------------------------|-------------------------|


  D/F#
   E  E  E  E  E  E  E  E    E  E  E  E  E  E  E  E
|-------------------------|-------------------------|
|-------------------------|-------------------------|
|-11-11-11-11-11-11-11-11-|-11-11-11-11-11-11-11-11-|
|-12-12-12-12-12-12-12-12-|-12-12-12-12-12-12-12-12-|
|--9--9--9--9--9--9--9--9-|--9--9--9--9--9--9--9--9-|
|-------------------------|-------------------------|


  C5         A/C#       D5         B/F#
  W          W          W          W
|----------|----------|----------|------||
|----------|----------|----------|------||
|----------|----------|----------|------||
|-5--------|-7--------|-7--------|-9----||
|-3--------|-4--------|-5--------|-6----||
|----------|----------|----------|------||


 Outro
  Em                                    Badd6/D#
  Gtr I
  PM----------------------------------------------------------------------|
  E E E E E E E E    E  E E E E E E E   E E E E E E E E    E  E E E E E E E
|-----------------|-------------------|-----------------|-------------------|
|-8-8-----8-8-----|--8--8-----8-8-----|-8-8-----8-8-----|--8--8-----8-8-----|
|-----9-9-----9-9-|-------9-9-----9-9-|-----8-8-----8-8-|-------8-8-----8-8-|
|-----------------|-------------------|-----------------|-------------------|
|-----------------|-------------------|-----------------|-------------------|
|-----------------|-------------------|-----------------|-------------------|
|
| Gtr II
| W                 +W                  W                 +W
|-----------------|-------------------|-----------------|-------------------|
|-----------------|-------------------|-----------------|-------------------|
|-----------------|-------------------|-----------------|-------------------|
|-----------------|-------------------|-9---------------|-(9)---------------|
|-2---------------|-(2)---------------|-6---------------|-(6)---------------|
|-0---------------|-(0)---------------|-----------------|-------------------|


  Am                      D
   PM------------------------------------------|
   E  E  E  E  E  E E E    E  E  E  E  E  E  E  E
|-----------------------|-------------------------|
|-----------------------|-10-10-------------------|
|-------------------9-9-|-------11-11-------------|
|-------------10-10-----|-------------12-12-------|
|-12-12-12-12-----------|-------------------12-12-|
|-----------------------|-------------------------|
|
|  W                       W
|-----------------------|-------------------------|
|-----------------------|-------------------------|
|-----------------------|--7----------------------|
|--7--------------------|--7----------------------|
|--7--------------------|--5----------------------|
|--5--------------------|-------------------------|


  Em                         N.C.
     PM--------------------| ~~
  Q  E E E E E E   E E E E E Q.
|----------------|----------------|
|----------------|----------------|
|----------------|----------------|
|-2--------------|----------------|
|-2--------------|----------------|
|-0--0-0-0-0-0-0-|-0-0-0-0-0-2----|
|
|    PM--------------------| ~~
| Q  E E E E E E   E E E E E Q.
|----------------|----------------|
|----------------|----------------|
|----------------|----------------|
|-2--------------|----------------|
|-2--------------|----------------|
|-0--0-0-0-0-0-0-|-0-0-0-0-0-2----|


  G5
   PM------------------------------------
   E E E E E E E E     E  E E E E E E E
|------------------|--------------------|
|--8-8-----8-8-----|---8--8-----8-8-----|
|------7-7-----7-7-|--------7-7-----7-7-|
|------------------|--------------------|
|------------------|--------------------|
|------------------|--------------------|
|
|  W                  +W
|------------------|--------------------|
|------------------|--------------------|
|------------------|--------------------|
|-12---------------|-(12)---------------|
|-10---------------|-(10)---------------|
|------------------|--------------------|


  D/F#
 -------------------------------------|
   E E E E E E E E     E  E E E E E E E
|------------------|--------------------|
|--7-7-----7-7-----|---7--7-----7-7-----|
|------7-7-----7-7-|--------7-7-----7-7-|
|------------------|--------------------|
|------------------|--------------------|
|------------------|--------------------|
|
|  W                  +W
|------------------|--------------------|
|------------------|--------------------|
|------------------|--------------------|
|-12---------------|-(12)---------------|
|--9---------------|--(9)---------------|
|------------------|--------------------|


  C5         A/C#       D5         B/D#       E5
  Gtrs I, II
  W          W          W          W          Q  +Q    H
|----------|----------|----------|----------|---------------*|
|----------|----------|----------|----------|---------------*|
|----------|----------|----------|----------|---------------*|
|-5--------|-7--------|-7--------|-9--------|-9--(9)\-------*|
|-3--------|-4--------|-5--------|-6--------|-7--(7)\-------*|
|----------|----------|----------|----------|---------------*|



Duration Legend
---------------
W - whole; H - half; Q - quarter; E - 8th; S - 16th; T - 32nd; X - 64th; a - acciaccatura
+ - note tied to previous; . - note dotted; .. - note double dotted
Uncapitalized letters represent notes that are staccato (1/2 duration)
Irregular groupings are notated above the duration line
Duration letters will always appear directly above the note/fret number it represents the
duration for.  Duration letters with no fret number below them represent rests.  Multi-
bar rests are notated in the form Wxn, where n is the number of bars to rest for.  Low
melody durations appear below the staff

Tablature Legend
----------------
 h   - hammer-on
 p   - pull-off
 b   - bend
 pb  - pre-bend
 r   - bend release (if no number after the r, then release immediately)
 /\  - slide into or out of (from/to "nowhere")
 s   - legato slide
 S   - shift slide
 - natural harmonic
[n]  - artificial harmonic
n(n) - tapped harmonic
 ~   - vibrato
 tr  - trill
 T   - tap
 TP  - trem. picking
 PM  - palm muting
\n/  - tremolo bar dip; n = amount to dip
 \n  - tremolo bar down
 n/  - tremolo bar up
/n\  - tremolo bar inverted dip
 =   - hold bend; also acts as connecting device for hammers/pulls
 <> - volume swell (louder/softer)
 x   - on rhythm slash represents muted slash
 o   - on rhythm slash represents single note slash

Misc Legend
-----------
 |  - bar
||  - double bar
||o - repeat start
o|| - repeat end
*|  - double bar (ending)
 :  - bar (freetime)
 $  - Segno
 &  - Coda
Tempo markers -  = BPM(8/16=s8/s16), where s8 = swing 8ths, s16 = swing 16ths

Tap to rate this tab
 
# A B C D E F G H I J K L M N O P Q R S T U V W X Y Z