Song name
# A B C D E F G H I J K L M N O P Q R S T U V W X Y Z

Arch Enemy - Rise Of The Tyrant tab

Arch Enemy
Rise of the tyrant

this is just what i have figured out but i dout its 100% correct but it sound pretty close
riff 1                            play this once
:-------------------------------|---------------------------------------|
:-------------------------------|---------------------------------------|
:-------------------------------|---------------------------------------|
:----4--4455---4--4433---4--4455|---------------------------------------|
:-------------------------------|---------------------------------------|
:-222-22----222-22----222-22----|-3*-3*-3*-3*3*3*-3*-3*3*3*-3*-3*-3*-3*-|
             ||
             ||
            \  /
             \/
:------------------------------------------|
:------------------------------------------|play after riff 1
:------------------------------------------|
:------------------------------------------|
:------------------------------------------|
:-222-2-333-3-444-4-555-5-444-4-333-3-222-2|

then play this

:--------------------------------------|
:--------------------------------------|
:--------------------------------------|
:-4-4-4-5-5-5-7-7-7-8-8-8-7-7-5-5-4-4--|
:--------------------------------------|
:--------------------------------------|

i kno this is wrong but meh it sound ok to me lol

:-21212121212121-212018-----------------------------------------------------|
:----------------------212018-----------------------------------------------|
:----------------------------211918-----------------------------------------|
:----------------------------------211918------------------------181920-----|
:----------------------------------------211918------------181920-----------|
:----------------------------------------------211918181921-----------------|

:------------------|
:------------------|
:-181920~~~~-------|
:------------------|
:------------------|
:------------------|


:-------------------------------------|
:-------------------------------------|
:-------------------------------------|
:---4-5---7-5-------7-9--10-9---------|
:---2-3---5-3-------5-7--8--7---------|
:-00----00----000000---00----0000-----|


 Chorus                   probly wrong
:-----------------------------------------------------------|
:-----------------------------------------------------------|
:-----------------------------------------------------------|
:-9-9-9-7-7-7-7-7-11-11-11-10-10-10-10-10-7-7-7-9-9-9-9-9---|
:-7-7-7-7-7-7-7-7-7--7--7--7--7--7--7--7--7-7-7-7-7-7-7-7---|
:-----------------------------------------------------------|

Dunno the solos but after the solos it goes

:-----------------------------------------------|
:-----------------------------------------------|
:-----------------------------------------------|
:---7-8---5-7---7-8-10-8--7-8--5-7--5~~~~-------|repeats
:-00-0--00-0--00--------00-0-00-0-00------------|
:-----------------------------------------------|

:-------------------------------------------------|
:-------------------------------------------------|
:-------------------------------------------------|
:-------------------------------------------------|
:-------------------------------------------------|
:-666666666666-111111111111111-1010101010101010---|


so yea thats what i have figured out tho half of it probly wrong
but anyways hope it helps some ppl.
Tap to rate this tab
 
# A B C D E F G H I J K L M N O P Q R S T U V W X Y Z