Song name
# A B C D E F G H I J K L M N O P Q R S T U V W X Y Z

Arch Enemy - I Will Live Again tab

Help us improve GuitareTab! Take a short survey!
i will live again
arch enemy
Tuning: c standard

|--------------------------------------------------------------------------|
|------15--13--------------------------13----15----------------------------|
|--------------14--12--------12--/15--------------14-----------------------|
|--/12-------------------15------------------------------------------------|
|--------------------------------------------------------------------------|
|--------------------------------------------------------------------------|

|--------------------------------------------------------------------------|
|--------------------------------------------------------------------------|
|--------------------------------------------------------------------------|
|--------------------------------------------------------------------------|
|--------------------------------------3/5---------------------------------|
|----5-5-5--5-5-5--5--6--7-7-7--7-7-7-------6-6-6--6-6-6--3-5--0-0-0-1-1-1-|

|--------------------------------------------------------------------------|
|--------------------------------------------------------------------------|
|----9-9-9-7-7-7--7-7-7-5-5-5----------------------------------------------|
|--------------------------------------------------------------------------|
|----7-7-7-5-5-5--5-5-5-3-3-3----------------------------------------------|
|--------------------------------1-1-1-0-----------------------------------|

Related for I Will Live Again tab