Guitaretab - guitar tabs
Song name
# A B C D E F G H I J K L M N O P Q R S T U V W X Y Z

Arch Enemy - Night Falls Fast tab

Night Falls Fast
Arch Enemy
From the 2007 Album
Rise of the Tyrant
Lyrics Angela Gossow
Music Michael Ammott
I only have the riffs but in a week or 2 Iíll post the solos as a solo tab and I 
mean it not like those asses that say they will then never do

2 Steps Down C-F-A#-D#-G-C low to high

Intro           Guitars 1 and 2      x4
[--------------------------------------]
[--------------------------------------]
[--------------------------------------]
[-----------------------------2-3-5-3--]
[-2----3----2-------2---3---3----------]
[---00---00--00-000--00---0------------]

[-------------------------------------------]
[-------------------------------------------]
[-------------------------------------------]
[-------------------------------------------]
[-------2---------2---------2----3----2---3-]
[-0-000---0-0-000---0-0-000---00---00---0---]

[-------------------------------------------------]
[-------------------------------------------------]
[-------------------------------------------------]
[-------------------------------------------------]
[-------2---------2----------7-0-5-0-3------------]
[-0-000---0-0-000---0-0-000-------------5-0-3-0h2-]

[-------------------------------------------]
[-------------------------------------------]
[-------------------------------------------]
[-------------------------------------------]
[-------2---------2---------2----3----2---3-]
[-0-000---0-0-000---0-0-000---00---00---0---]

[--------------------------------------------------------]
[--------------------------------------------------------]
[--------------------------------------------------------]
[--------------------------------------------------------]
[-------2----------2------------7p0h5p0h3p0--------------]
[-0-000---0-0-000----0-0-000-----------------5p0h3p0h2p0-]

Verse              Guitars 1 and 2
[----------------------------------------]
[----------------------------------------]
[----------------------------------------]
[----------------------------------------]
[----------------------------------------]
[-0-00-000-0-00-000-0-00-000-0h2-2-3p2-2-]

[------------------------------------------]
[------------------------------------------]
[------------------------------------------]
[------------------------------------------]
[------------------------------------------]
[-0-00-000-0-00-000-0-00-000-0h2-2-3/5-5-5-]

[----------------------------------------]
[----------------------------------------]
[----------------------------------------]
[----------------------------------------]
[----------------------------------------]
[-0-00-000-0-00-000-0-00-000-0h2-2-3p2-2-]

[------------------------------]
[------------------------------]
[------------------------------]
[------------------------------]
[------------------------------]
[-0-00-000-0-00-000-2------[2]-]

Pre-Chorus          Guitars 1 and 2     x4
[----------------------------------------]
[----------------------------------------]
[----------------------------------------]
[-------------------------------2-3-5-3--]
[-2----3----2--------2----3---3----------]
[---00---00---00-000---00---0------------]

Chorus w/wah    Guitar 1 (I donít have the rhythm )
[-------------------------------------------------------]
[-8-8-8-7------8-8-8-7------8-8-8-7---------------------]
[---------9-9----------9-9----------9-9/11-11-9-8---8h9-]
[-------------------------------------------------------]
[-------------------------------------------------------]
[-------------------------------------------------------]

[----------------------------------------]
[-8-8-8-7------8-8-8-7------8-8-8-7------]
[---------9-9---------9-9-----------9-9b-]
[----------------------------------------]
[----------------------------------------]
[----------------------------------------]

Harmonized in either thirds or fourths
[-15/13-13-13/12-12-12/10-10-10-]
[-------------------------------]
[-------------------------------]
[-------------------------------]
[-------------------------------]
[-------------------------------]

Post Chorus  Guitar 1
[----------------]
[----------------]
[----------------]
[----------------]
[-2-----3--------]
[---00----00-000-]

Verse              Guitars 1 and 2
[----------------------------------------]
[----------------------------------------]
[----------------------------------------]
[----------------------------------------]
[----------------------------------------]
[-0-00-000-0-00-000-0-00-000-0h2-2-3p2-2-]

[------------------------------------------]
[------------------------------------------]
[------------------------------------------]
[------------------------------------------]
[------------------------------------------]
[-0-00-000-0-00-000-0-00-000-0h2-2-3/5-5-5-]

[----------------------------------------]
[----------------------------------------]
[----------------------------------------]
[----------------------------------------]
[----------------------------------------]
[-0-00-000-0-00-000-0-00-000-0h2-2-3p2-2-]

[------------------------------]
[------------------------------]
[------------------------------]
[------------------------------]
[------------------------------]
[-0-00-000-0-00-000-2------[2]-]
[ Tab from: http://www.guitaretab.com/a/arch-enemy/97169.html ]
Pre-Chorus
[---------------------------------------------]
[---------------------------------------------]
[---------------------------------------------]
[---------------------------------------------]
[-------2---------2---------2-----3-----2---3-]
[-0-000---0-0-000---0-0-000----00----00---0---]

[--------------------------------------------------]
[--------------------------------------------------]
[--------------------------------------------------]
[--------------------------------------------------]
[-------2---------2---------7p0h5p0h3p0------------]
[-0-000---0-0-000---0-0-000------------5p0h3p0h2p0-]

Chorus w/wah    Guitar 1 (I donít have the rhythm )
[---------------------------------------------------------]
[-8-8-8-7------8-8-8-7------8-8-8-7-----------------------]
[---------9-9-----------9-9-----------9-9/11-11-9-8---8h9-]
[---------------------------------------------------------]
[---------------------------------------------------------]
[---------------------------------------------------------]

[------------------------------------------]
[-8-8-8-7------8-8-8-7------8-8-8-7--------]
[---------9-9-----------9-9-----------9-9b-]
[------------------------------------------]
[------------------------------------------]
[------------------------------------------]

Guitar 2
[-15/13-13-13/12-12-12/10-10-10-]
[-------------------------------]
[-------------------------------]
[-------------------------------]
[-------------------------------]
[-------------------------------]
Guitar 1
[-13/12-12-12/10-10-10/8-8-8-]
[----------------------------]
[----------------------------]
[----------------------------]
[----------------------------]
[----------------------------]
Guitar 2 harmonized in third or fourths
[-12/10-10-10/8-8-8/7-7-7-]
[-------------------------]
[-------------------------]
[-------------------------]
[-------------------------]
[-------------------------]
Guitar 2
[-10-8-7-5-7-8-10-12-10-8-7-]
[---------------------------]
[---------------------------]
[---------------------------]
[---------------------------]
[---------------------------]
Guitar 2 harmonized in third or fourths
[-15/13-13-13/12-12-12/10-10-10-]
[-------------------------------]
[-------------------------------]
[-------------------------------]
[-------------------------------]
[-------------------------------]
Guitar 2 harmonized in third or fourths
[-13/12-12-12/10-10-10/8-8-8-]
[----------------------------]
[----------------------------]
[----------------------------]
[----------------------------]
[----------------------------]
Guitar 2 harmonized in third or fourths
[-12/10-10-10/8-8-8/7-7-7-]
[-------------------------]
[-------------------------]
[-------------------------]
[-------------------------]
[-------------------------]
Guitar 2 harmonized in third or fourths
[-10-8-7-5-7-8-10-12-10-8-7-]
[---------------------------]
[---------------------------]
[---------------------------]
[---------------------------]
[---------------------------]

Donít have the solos yet

Guitar 2 harmonized in third or fourths
[-15/13-13-13/12-12-12/10-10-10-]
[-------------------------------]
[-------------------------------]
[-------------------------------]
[-------------------------------]
[-------------------------------]
Chorus w/wah    Guitar 1 (I donít have the rhythm )
[--------------------------------------------------------]
[-8-8-8-7------8-8-8-7------8-8-8-7----------------------]
[---------9-9-----------9-9----------9-9/11-11-9-8---8h9-]
[--------------------------------------------------------]
[--------------------------------------------------------]
[--------------------------------------------------------]

[-----------------------------------------]
[-8-8-8-7------8-8-8-7------8-8-8-7-------]
[--------9-9-----------9-9-----------9-9b-]
[-----------------------------------------]
[-----------------------------------------]
[-----------------------------------------]

Guitar 2 harmonized in thirds or fourths
[-15/13-13-13/12-12-12/10-10-10-]
[-------------------------------]
[-------------------------------]
[-------------------------------]
[-------------------------------]
[-------------------------------]
Chorus w/wah    Guitar 1 (I donít have the rhythm )
[--------------------------------------------------------]
[-8-8-8-7------8-8-8-7------8-8-8-7----------------------]
[---------9-9-----------9-9----------9-9/11-11-9-8---8h9-]
[--------------------------------------------------------]
[--------------------------------------------------------]
[--------------------------------------------------------]

[-----------------------------------------]
[-8-8-8-7------8-8-8-7------8-8-8-7-------]
[--------9-9-----------9-9-----------9-9b-]
[-----------------------------------------]
[-----------------------------------------]
[-----------------------------------------]

Guitar 2 harmonized in thirds or fourths
[-15/13-13-13/12-12-12/10-10-10-]
[-------------------------------]
[-------------------------------]
[-------------------------------]
[-------------------------------]
[-------------------------------]
Guitars 1 and 2
[---------------------]
[---------------------]
[---------------------]
[-----2-3-5-3-2-3-----]
[-3-------------------]
[---------------------]
Related for Night Falls Fast tab