Song name
# A B C D E F G H I J K L M N O P Q R S T U V W X Y Z

Arch Matheos - Midnight Serenade tab

Artist: Arch/Matheos
Title: Midnight Serenade
Album: Sympathetic Resonance

Tuning: (low to high) C G C F A D

Tabbed by: FireReaverX


Intro
D|-1-------------------4-------------------3-------------------6-------------------|
A|-3-------------------5-------------------3-------------------4-------------------|
F|-2-------------------4-------------------0-------------------3-------------------|
C|-0-------------------6-------------------0---------------------------------------| 2x
G|---------------------------------------------------------------------------------|
C|---------------------------------------------------------------------------------|

D|-----------------------------------------------------------------|
A|-----------------------------------------------------------------|
F|-----------------------------------------------------------------|
C|-----------------------------------------------------------------|
G|---------5-------------------------------5-----------------------|
C|-0-----0-----0-------3---0---1---0-----0-----0-------3---0---1---|

D|-----------------------------------------------------------------|
A|-----------------------------------------------------------------|
F|-----------------------------------------------------------------|
C|-----------------------------------------------------------------|
G|---------5-------------------------------5-----------------------|
C|-0-----0-----0-------3---0---1---0-----0-----0-------5---0---3---|

D|-----------------------------------------------------------------|
A|-----------------------------------------------------------------|
F|-----------------------------------------------------------------|
C|-----------------------------------------------------------------|
G|---------5-----------------------3-------6-------5-----------3---|
C|-0-----0-----0-------5---0---3-------0-------0-------0---3-------|


Verse
D|-------------------------------------------------|
A|-------------------------------------------------|
F|-------------------------------------------------|
C|-3---3-------3---3-------3---3-------3---3-------|
G|-5---5-------5---5-------5---5-------5---5-------|
C|-0---0---0-0-0---0---0-0-0---0---0-0-0---0---0-0-|
           . .         . .         . .         . .

D|-------------------------------------------------|
A|-------------------------------------------------|
F|-------------------------------------------------|
C|-6---6-------6---6-------6---6-------6---6-------|
G|-7---7---7-7-7---7---7-7-7---7---7-7-7---7---7-7-|
C|-------------------------------------------------|
           . .         . .         . .         . .

D|-------------------------------------------------|
A|-------------------------------------------------|
F|-------------------------------------------------|
C|-------------------------------------------------|
G|-5---5-------5---5-------5---5-------5---5-------|
C|-0---0---0-0-0---0---0-0-0---0---0-0-0---0---0-0-|
           . .         . .         . .         . .

D|-------------------------------------------------|
A|-------------------------------------------------|
F|-8---8-------8---8-------8---8-------------------|
C|-8---8-------8---8-------8---8-------------------|
G|-6---6---6-6-6---6---6-6-6---6---6-6-0h3-5-------|
C|---------------------------------------------3---|
           . .         . .         . .

D|-------------------------------------------------|
A|-------------------------------------------------|
F|-------------------------------------------------|
C|-3---3-------3---3-------3---3-------3---3-------|
G|-5---5-------5---5-------5---5-------5---5-------|
C|-0---0---0-0-0---0---0-0-0---0---0-0-0---0---0-0-|
           . .         . .         . .         . .

D|-------------------------------------------------|
A|-------------------------------------------------|
F|-------------------------------------------------|
C|-6---6-------6---6-------6---6-------6---6-------|
G|-7---7---7-7-7---7---7-7-7---7---7-7-7---7---7-7-|
C|-------------------------------------------------|
           . .         . .         . .         . .

D|-------------------------------------------------|
A|-------------------------------------------------|
F|-------------------------------------------------|
C|-------------------------------------------------|
G|-5---5-------5---5-------5---5-------5---5-------|
C|-0---0---0-0-0---0---0-0-0---0---0-0-0---0---0-0-|
           . .         . .         . .         . .

D|-------------------------------------------------|
A|-------------------------------------------------|
F|-------------------------------------------------|
C|-1---1-------1---1-------1---1-------1-/-3---3---|
G|-1---1-------1---1-------1---1-------1-/-3---3---|
C|-1---1---1-1-1---1---1-1-1---1-------1-/-3---3---|
           . .         . . 


Chorus
D|-----------------------------------------------------------------|
A|-----------------------------------------------------------------|
F|-----2-----2---------2-----2---------2-----2---------2-----2-----|
C|---0-----0-----0---0-----0---------0-----0-----0---0-----0-------| 2x
G|-------1-----0---------0---------------1-----0-------------------|
C|-0---------------5-----------5-3-0---------------2-----3-----3-2-|


Post-Chorus
D|-----------------------------------------------------------------|
A|-----------------------------------------------------------------|
F|-----------------------------------------------------------------|
C|-----------------------------------------------------------------|
G|---------5-------------------------------5-----------------------|
C|-0-0-0-0-----0-0-0-0-3---0---1---0-0-0-0-----0-0-0-0-3---0---1---|
   . . . .       . . .             . . . .       . . .

D|-----------------------------------------------------------------|
A|-----------------------------------------------------------------|
F|-----------------------------------------------------------------|
C|-----------------------------------------------------------------|
G|---------5-------------------------------5-----------------------|
C|-0-0-0-0-----0-0-0-0-3---0---1---0-0-0-0-----0-0-0-0-5---0---3---|
   . . . .       . . .             . . . .       . . .

D|-----------------------------------------------------------------|
A|-----------------------------------------------------------------|
F|-----------------------------------------------------------------|
C|-----------------------------------------------------------------|
G|---------5-----------------------3-------6-------5-----------3---|
C|-0-0-0-0-----0-0-0-0-5---0---3-------0-------0-------0---3-------|
   . . . .       . . .


Verse
Chorus


Bridge
D|----------------------------------------------------------|
A|----------------------------------------------------------|
F|----------------------------------------------------------|
C|-----3----------------------------------------------------| 4x
G|---------5-----------5-----------5-/6-5-------0h3-5-------|
C|-0-----------0---7h8-----6---0------------0-----------6---|

D|-------------------------0---------------------------------------|
A|-6-----------6-----------0---------------------------------------|
F|-3-----------2-----------0---------2-----2-----2-----------------|
C|-------------------------2-----------0-----0-----0---6-----------|
G|-------------------------2-----------------------------5-0---2---|
C|-------------------------2-------0-----2-----3-----6-------------|

D|-------------------------0---------------------------------------|
A|-6-----------6-----------0---------------------------------------|
F|-3-----------2-----------0---------------------------------------|
C|-------------------------2------/3-----2-----0-------------------|
G|-------------------------2-------------------------3-----2-------|
C|---------------------/-\-2---------------------------------------|

D|-1------------|
A|-3------------|
F|-2------------|
C|-0------------|
G|--------------|
C|--------------|


Chorus
Post-Chorus


Outro
D|-----------------------------------------------------------------|
A|-/10------10h11p10h13-----p10h11p10-\9----h10p9-\5---------------|
F|-----------------------------------------------------------------|
C|-----------------------------------------------------------------|
G|-----------------------------------------------------------------|
C|-----------------------------------------------------------------|

D|-------------------------------------------------0---0-----------|
A|-/15------15h18p15-18-----18p15-17-----------------------10-13-\-|
F|--------------------------------------12p10-12b------------------|
C|-----------------------------------------------------------------|
G|-----------------------------------------------------------------|
C|-----------------------------------------------------------------|

D|-----------------------------------------------------------------|
A|-18b20-----p15-18b20-15-\----------------------------------------|
F|-----------------------------------------------------------------|
C|-----------------------------------------------------------------|
G|-----------------------------------------------------------------|
C|-----------------------------------------------------------------|


Notes: There are two guitars playing throughout the entire song. I've only 
tabbed the most prominent part in each section. However, almost everything 
played should be included (for example, the intro chords are used in other 
places). For the second half of the second verse, just palm mute the open 
low C string in rhythm.
Tap to rate this tab
# A B C D E F G H I J K L M N O P Q R S T U V W X Y Z